Song name
# A B C D E F G H I J K L M N O P Q R S T U V W X Y Z

Skillet - Sometimes tab

Skillet-Sometimes
Tunning-Standard
Tabbed By:BrandonTriplett
i will put aa video on here later for the song but i put the lead guitar on the 
bottom three strings so you know when to play it with the lead enjoy=)
e|---------------------------------|
b|---------------------------------|
g|------------------12-12-12-12-12-|
d|-5--------0----------------------|
a|-5--------0----------------------|
e|-5--------0----------------------|

e|--------------------|
b|--------------------|
g|--------------------|
d|-99-99-7-999-99-4-7-|
a|-99-99-7-999-99-4-7-|
e|-99-99-7-999-99-4-7-|

e|---------------------------------------|
b|-77------77------77877------77------77-|
                        
                    
Tap to rate this tab
# A B C D E F G H I J K L M N O P Q R S T U V W X Y Z