Song name
# A B C D E F G H I J K L M N O P Q R S T U V W X Y Z

Skillet - Whispers In The Dark tab

'Whispers In The Dark Solo' by Skillet on the Comatose album
tuning: Drop B
Tabbed by: panterarocks25
Guitarest: Ben Kasica

/ - slide
h - hammer-on
p - pull-off
~ - vibrato

C#]---------12----------------------------12----------------------------12-|
G#]-10-8-10----10-8-10p8-6-8p6-5--10-8-10----10-8-10p8-6-8p6-5--10-8-10----|
E ]------------------------------------------------------------------------|
B ]------------------------------------------------------------------------|
F#]------------------------------------------------------------------------|
B ]------------------------------------------------------------------------|

C#]---------------------------------------------------------20-----------------|
G#]-10-8-10-13p11-9-11p9-7-9p7-5-7p5-3~--/5~/6~/8~/10~/13~~----20-18-20p18-17--|
E ]----------------------------------------------------------------------------|
B ]----------------------------------------------------------------------------|
F#]----------------------------------------------------------------------------|
B ]----------------------------------------------------------------------------|


C#]-20--------------------------------------------------------------------|
G#]----20-18-20p18-17-----------------------------------------------------|
E ]------------------------------------------------9h11h12-7h9h10-9h11h12-|
B ]---------------------------------7h9h10-9h11h12------------------------|
F#]--------------------------7h9h10---------------------------------------|
B ]-------------------7h9h10----------------------------------------------|


C#]----------------20----------------20------------------|
G#]-10h11h13/15~~-----20-18-20p18-17----20-18-20p18-17~~-|
E ]------------------------------------------------------|
B ]------------------------------------------------------|
F#]------------------------------------------------------|
B ]------------------------------------------------------|

after that go back to the intro... and if you want me to put the whole song up just 
comment on this and tell and i will
Tap to rate this tab
# A B C D E F G H I J K L M N O P Q R S T U V W X Y Z