Song name
# A B C D E F G H I J K L M N O P Q R S T U V W X Y Z

Skillet - Hero tab

Skillet-Hero
Tunning-Standard
i put the lead with the overdrive guitar so you will know when both guitarist play 
there parts at the same time thanks for picking my tab.
e|-------------------------------------------------------------------|
b|-1212141415151414----171715151414-1515171718181717----202018181717-|
g|-----------------1414-----------------------------1717-------------|
d|------------------2222----------------------------------2222-------|
a|------------------2222----------------------------------2222-------|
e|------------------2222----------------------------------2222-------|

e|-------------------------------------------------------------------------|
b|-1515171718181717----2020181817171515171718181717----202018181717--------|
g|-----------------1717----------------------------1717--------------------|
d|-22-2222-5555-0000-22-2222-5555-7777-22-2222-5555-0000-22-2222-5555-7777-|
a|-22-2222-5555-0000-22-2222-3333-5555-22-2222-5555-0000-22-2222-3333-5555-|
e|-22-2222-5555-0000-22-2222-----------22-2222-5555-0000-22-2222-----------|

e|------------------------------------------------------------------|
b|------------------------------------------------------------------|
g|------------------------------------------------------------------|
d|-2222-5-4----------2-5-2-5-4----------2222-5-4----------2-5-2-5-4-|
a|-2222-3-2----------2-3-2-3-2----------2222-3-2----------2-3-2-3-2-|
e|-2222-----77887755-2---2-----77887755-2222-----77887755-2---2-----|

e|------------------------------------------------------------|
b|------------------------------------------------------------|
g|------------------------------------------------------------|
d|-22-2222-5555-2-5-2-5-4-2-2-3-2-22-2222-5555-2-5-2-5-4-2222-|
a|-22-2222-5555-2-3-2-3-2-2-2-3-2-22-2222-5555-2-3-2-3-2-2222-|
e|-22-2222-5555-2---2-----2-2-----22-2222-5555-2---2-----2222-|

e|-------------------------------------------------------|
b|-1515171718181717----202018181717----------------------|
g|-----------------1717----------------------------------|
d|-22222222-55555555-00000000-22222222-55555555-77777777-|
a|-22222222-55555555-00000000-22222222-33333333-55555555-|
e|-22222222-55555555-00000000-22222222-------------------|

e|------------------------------------------------------|
b|--1515171718181717------202018181717------------------|
                        
                    
Tap to rate this tab
# A B C D E F G H I J K L M N O P Q R S T U V W X Y Z