Song name
# A B C D E F G H I J K L M N O P Q R S T U V W X Y Z

Skillet - Its Not Me Its You tab

BAND NAME: Skillet

Song Name: It's not me it's you

Key: * means to palm mute that note.


INTRO:

1st guitar
e|---------------------------------------------------------------------------|
B|--------------------------------------------7-----------8-------8-7--5-8---|
G|------------------------------------------------6-7-6----------------------|
D|--------------------------7-7--4-4--------------------9--------------------|
A|--------------------------7-7--4-4-----------------------------------------|
E|--------------------------7-7--4-4-----------------------------------------|

2nd Guitar
e|---------------------------------------------------------------------------|
B|-----7---------------------------------------7-----------------------------|
G|4-4--4-----------------7----------------4-4--4---------------7-------------|
D|4-4--4---4-4-4-4--5-5--5---7-7--4-4-----4-4--4--4-4-4-4--5-5-5---7-7--4-4--|
A|2-2------4-4-4-4--5-5--5---7-7--4-4-----2-2-----4-4-4-4--5-5-5---7-7--4-4--|
E|---------4-4-4-4--5-5------7-7--4-4-------------4-4-4-4--5-5-----7-7--4-4--|

1st Guitar
e|------------------------------------------|
B|7-------6-7-6---8---------8-7--5----------|
G|--------------9------------------7--------|
D|------------------------------------------|
A|------------------------------------------|
E|------------------------------------------|

2nd Guitar

e|------------------------------------------|
B|-----7------------------------------------|
G|4-4--4-----------------7------------------|
D|4-4--4---4-4-4-4--5-5--5---7-7--4-4-------|
A|2-2------4-4-4-4--5-5--5---7-7--4-4-------|
E|---------4-4-4-4--5-5------7-7--4-4-------|

VERSE:

1st Guitar
e|---------------------------------------------------------------------------|
B|---------------------------------------------------------------------------|
G|---------------------------------------------------------------------------|
D|---------------------------------------------------------------------------|
A|---------------------------------------------------------------------------|
E|---------------------------------------------------------------------------|

2nd Guitar
e|---------------------------------------------------------------------------|
B|---------------------------------------------------------------------------|
G|---------------------------------------------------------------------------|
D|---------------------------------------------------------------------------|
A|5-5-5-5-5-5-5-5--5-5-5-5-5-5-5-5-5--7--9---5-----5-5-5-5-5-5-5-5-5-5--7--9-|
E|5-5-5-5-5-5-5-5--5-5-5-5-5-5-5-5-5--7--9---5-----5-5-5-5-5-5-5-5-5-5--7--9-|
    * * * * * * *    * * * *   * * *                 * * * * *   * * *


1st Guitar
e|---------------------------------------------------------------------------|
B|---------------------------------------------------------------------------|
G|---------------------------------------------------------------------------|
D|---------------------------------------------------------------------------|
A|---------------------------------------------------------------------------|
E|---------------------------------------------------------------------------|

2nd Guitar
e|---------------------------------------------------------------------------|
B|---------------------------------------------------------------------------|
G|---------------------------------------------------------------------------|
D|---------------------------------------------------------------------------|
A|5------5-5-5-5-5-5-5-5-5-5--7--9----5-5-5-5-5-5-5-5-7-7-7-7-7-7-7-7--------|
E|5------5-5-5-5-5-5-5-5-5-5--7--9----5-5-5-5-5-5-5-5-7-7-7-7-7-7-7-7--------|
           * * * * *   * * *          * * * * * * * * * * * * * * * *


1st Guitar
e|---------------------------------------------------------------------------|
B|---------------------------------------------------------------------------|
G|---------------------------------------------------------------------------|
D|---------------------------------------------------------------------------|
A|---------------------------------------------------------------------------|
E|---------------------------------------------------------------------------|

2nd Guitar
e|---------------------------------------------------------------------------|
B|---------------------------------------------------------------------------|
G|---------------------------------------------------------------------------|
D|---------------------------------------------------------------------------|
A|5-5-5-5-5-5-5-5--7--7--7---------------------------------------------------|
E|5-5-5-5-5-5-5-5--7--7--7---------------------------------------------------|
  * * * * * * * *  *  *  *

CHORUS:


Both Guitars
e|---------------------------------------------------------------------------|
B|----7---------------------------------7------------------------------------|
G|4-4-4----------------7------------4-4-4------------------------------------|
D|4-4-4---4-4-4-4--5-5-5--7-7-7-7---4-4-4--4-4-4-4--5-5-5-5--7-7-7-7---------|
A|2-2-----4-4-4-4--5-5-5--7-7-7-7---2-2----4-4-4-4--5-5-5-5--7-7-7-7---------|
E|--------4-4-4-4--5-5----7-7-7-7----------4-4-4-4--5-5-5-5--7-7-7-7---------|



Both Guitars
e|---------------------------------------------------------------------------|
B|----7----------------------------------------------------------------------|
G|4-4-4---------------7------------------------------------------------------|
D|4-4-4--4-4-4-4--5-5-5--7-7-7-7---5-5-5-5--7-7-7-7--5-5-5-5--4-4------------|
A|2-2----4-4-4-4--5-5-5--7-7-7-7---5-5-5-5--7-7-7-7--5-5-5-5--4-4------------|
E|-------4-4-4-4--5-5----7-7-7-7---5-5-5-5--7-7-7-7--5-5-5-5--4-4------------|

1st Guitar
e|---------------------------------------------------------------------------|
B|15-14------------12-12-------------15-14----------12-12--------------------|
G|------14--11--14-------------------------14-11-14--------------------------|
D|---------------------------------------------------------------------------|
A|---------------------------------------------------------------------------|
E|---------------------------------------------------------------------------|

2nd Guitar
e|---------------------------------------------------------------------------|
B|---------------------------------------------------------------------------|
G|4-4-------------------------------4-4--------------------------------------|
D|4-4----4-4---5-5-5-5--7-7--4-4----4-4----4-4---5-5-5-5--7-7--4-4-----------|
A|2-2----4-4---5-5-5-5--7-7--4-4----2-2----4-4---5-5-5-5--7-7--4-4-----------|
E|-------4-4---5-5-5-5--7-7--4-4-----------4-4---5-5-5-5--7-7--4-4-----------|

VERSE:

1st Guitar
e|---------------------------------------------------------------------------|
B|--------12------------------------12----------------12-----------------12--|
G|------------11-----------------------11-----------------11----------------11|
D|---------------------------------------------------------------------------|
A|---------------------------------------------------------------------------|
E|---------------------------------------------------------------------------|

2nd Guitar
e|---------------------------------------------------------------------------|
B|---------------------------------------------------------------------------|
G|---------------------------------------------------------------------------|
D|---------------------------------------------------------------------------|
A|5-5-5-5-5-5-5-5--5-5-5-5-5-5-5-5-5--7--9---5-----5-5-5-5-5-5-5-5-5-5--7--9-|
E|5-5-5-5-5-5-5-5--5-5-5-5-5-5-5-5-5--7--9---5-----5-5-5-5-5-5-5-5-5-5--7--9-|
    * * * * * * *    * * * *   * * *                 * * * * *   * * *


1st Guitar
e|---------------------------------------------------------------------------|
B|-----------12----------------12------------------14------------------------|
G|--------------11-----------------11------------------14--------------------|
D|---------------------------------------------------------------------------|
A|---------------------------------------------------------------------------|
E|---------------------------------------------------------------------------|

2nd Guitar
e|---------------------------------------------------------------------------|
B|---------------------------------------------------------------------------|
G|---------------------------------------------------------------------------|
D|---------------------------------------------------------------------------|
A|5------5-5-5-5-5-5-5-5-5-5--7--9----5-5-5-5-5-5-5-5-7-7-7-7-7-7-7-7--------|
E|5------5-5-5-5-5-5-5-5-5-5--7--9----5-5-5-5-5-5-5-5-7-7-7-7-7-7-7-7--------|
           * * * * *   * * *          * * * * * * * * * * * * * * * *


1st Guitar
e|---------------------------------------------------------------------------|
B|----------14-------17------------------------------------------------------|
G|--------14-----------------------------------------------------------------|
D|---------------------------------------------------------------------------|
A|---------------------------------------------------------------------------|
E|---------------------------------------------------------------------------|

2nd Guitar
e|---------------------------------------------------------------------------|
B|---------------------------------------------------------------------------|
G|---------------------------------------------------------------------------|
D|---------------------------------------------------------------------------|
A|5-5-5-5-5-5-5-5--7--7--7---------------------------------------------------|
E|5-5-5-5-5-5-5-5--7--7--7---------------------------------------------------|

CHORUS:


Both Guitars
e|---------------------------------------------------------------------------|
B|----7---------------------------------7------------------------------------|
G|4-4-4----------------7------------4-4-4------------------------------------|
D|4-4-4---4-4-4-4--5-5-5--7-7-7-7---4-4-4--4-4-4-4--5-5-5-5--7-7-7-7---------|
A|2-2-----4-4-4-4--5-5-5--7-7-7-7---2-2----4-4-4-4--5-5-5-5--7-7-7-7---------|
E|--------4-4-4-4--5-5----7-7-7-7----------4-4-4-4--5-5-5-5--7-7-7-7---------|



Both Guitars
e|---------------------------------------------------------------------------|
B|----7----------------------------------------------------------------------|
G|4-4-4---------------7------------------------------------------------------|
D|4-4-4--4-4-4-4--5-5-5--7-7-7-7---5-5-5-5--7-7-7-7--5-5-5-5--4-4-4-4--------|
A|2-2----4-4-4-4--5-5-5--7-7-7-7---5-5-5-5--7-7-7-7--5-5-5-5--4-4-4-4--------|
E|-------4-4-4-4--5-5----7-7-7-7---5-5-5-5--7-7-7-7--5-5-5-5--4-4-4-4--------|

Bridge

BOTH GUITARS
e|---------------------------------------------------------------------------|
B|---------------------------------------------------------------------------|
G|------------------------------------2--------------------------------------|
D|9-10-9-7-9\2-0--0----9-10-9-7-9\2-0-2--------------------------------------|2x
A|9-10-9-7-9\2-0--0----9-10-9-7-9\2-0-0--------------------------------------|
E|9-10-9-7-9\2-0--0----9-10-9-7-9\2-0----------------------------------------|

BOTH GUITARS
e|----------------------------------------------------------------------------|
B|----------------------------------------------------------------------------|
G|------------------------4--4--4--4--4--4--4--4------------------------------|
D|5--5--5--5--5--5--5--5--4--4--4--4--4--4--4--4--0--0--0--0--0--0--0--0--2--2|
A|5--5--5--5--5--5--5--5--2--2--2--2--2--2--2--2--0--0--0--0--0--0--0--0--2--2|
E|5--5--5--5--5--5--5--5--------------------------0--0--0--0--0--0--0--0--2--2|

BOTH GUITARS
e|----------------------------------------------------------------------------|
B|----------------------------------------------------------------------------|
G|------------------------------------------4--4--4--4--4--4--4--4------------|
D|2--2--2--2--2--2--5--5--5--5--5--5--5--5--4--4--4--4--4--4--4--4--2--2--2--2|
A|2--2--2--2--2--2--5--5--5--5--5--5--5--5--2--2--2--2--2--2--2--2--2--2--2--2|
E|2--2--2--2--2--2--5--5--5--5--5--5--5--5--------------------------2--2--2--2|

BOTH GUITARS
e|---------------------------------------------------------------------------|
B|---------------------------------------------------------------------------|
G|---------------------------------------------------------------------------|
D|---------------------------------------------------------------------------|
A|2--2--2--2-----------------------------------------------------------------|
E|2--2--2--2--5-5-5-5-7-7-7-7------------------------------------------------|
e|2--2--2--2--5-5-5-5-7-7-7-7------------------------------------------------|
              * * * * * * * *

CHORUS

e|-------------------------------------------------------------------------------|
B|----7-----------------------------7----------------------------------7---------|
G|----4-------------7-----------4-4-4------------------------------4-4-4---------|
D|----4---4-4-4-4---5--7-7-7-7--4-4-4--4-4-4-4--5-5-5-5--7-7-7-7---4-4-4-4-4-4-4-|
A|--------4-4-4-4---5--7-7-7-7--2-2----4-4-4-4--5-5-5-5--7-7-7-7---2-2---4-4-4-4-|
E|--------4-4-4-4------7-7-7-7---------4-4-4-4--5-5-5-5--7-7-7-7---------4-4-4-4-|

1st guitar                                      
e|------------------------------------------------------------------------------|
B|------------------------------------------------15-14-----------12-12---------|
G|------------------------------------------------------14--11-14---------------|
D|------------------------------------------------------------------------------|
A|------------------------------------------------------------------------------|
E|------------------------------------------------------------------------------|

2nd Guitar
e|-------------------------------------------------------------------------------|
B|-------------------------------------------------------------------------------|
G|----7-----------------------------------------------4-4------------------------|
D|5-5-5--7-7-7-7--5-5-5-5-7-7-7-7--5-5-5-5--4-4-4-4---4-4---4-4--5-5-5-5--7-7-4-4|
A|5-5-5--7-7-7-7--5-5-5-5-7-7-7-7--5-5-5-5--4-4-4-4---2-2---4-4--5-5-5-5--7-7-4-4|
E|5-5----7-7-7-7--5-5-5-5-7-7-7-7--5-5-5-5--4-4-4-4---------4-4--5-5-5-5--7-7-4-4|

1st Guitar
e|--------------------------------------------------------------------------------|
B|15-14-----------12-12---------7--------8--8-7-5-8-7------------8---8-7-5-8-7----|
G|------14--11-14----------------6-7-6--------------------6-7-6-------------------|
D|-------------------------------------9------------------------9-----------------|
A|--------------------------------------------------------------------------------|
E|--------------------------------------------------------------------------------|

2nd Guitar
e|-------------------------------------------------------------------------------------|
B|-------------------------------------------------------------------------------------|
G|4-4--------------------------4-4--------------------------4-4-----------------------4|
D|4-4---4-4--5-5-5-5--7-7-4-4--4-4---4-4--5-5-5-5--7-7-4-4--4-4--4-4--5-5-5-5-7-7-4-4-4|
A|2-2---4-4--5-5-5-5--7-7-4-4--2-2---4-4--5-5-5-5--7-7-4-4--2-2--4-4--5-5-5-5-7-7-4-4-2|
E|------4-4--5-5-5-5--7-7-4-4--------4-4--5-5-5-5--7-7-4-4-------4-4--5-5-5-5-7-7-4-4--|


************************************

| /   slide up
| \   slide down
| h   hammer-on
| p   pull-off
| ~   vibrato
| +   harmonic
| x   Mute note
| b   Bend
| pb  Pre-bend
| br  Bend release
| pbr Pre-bend release
| brb Bend release bend

************************************
Tap to rate this tab
# A B C D E F G H I J K L M N O P Q R S T U V W X Y Z