Song name
# A B C D E F G H I J K L M N O P Q R S T U V W X Y Z

Skillet - Alien Youth tab

Skillet-
Alien Youth

INTRO
:--x--x-x-x-x--x--x-x-x-x--x------------:
:--x--x-x-x-x--x--x-x-x-x--x------------:
:--x--x-x-x-x--x--x-x-x-x--x------------: X12
:--8--8-8-8-8--5--5-5-5-5-s8------------: X12
:--6--6-6-6-6--3--3-3-3-3---------------:
:--6--6-6-6-6--3--3-3-3-3---------------:

1st Guitar plays twice before 2nd comes in, then they both play twice before bass comes 
then play 4x with bass doing regular and 4x with bass doing heavy

VERSE
No guitar only Bass

CHORUS
-----------------------------------------------------xxxx---xxxx-|
-----------------------------------------------------xxxx---xxxx-|
5-5-5-5-8-8-8-8---------7-7-7-7-5-5-5-5-8-8-8-8-8----xxxx7-7xxxx-|
5-5-5-5-8-8-8-8-8-8-8-8-7-7-7-7-5-5-5-5-8-8-8-8-8-8-8xxxx7-7xxxx-|
3-3-3-3-6-6-6-6-8-8-8-8-5-5-5-5-3-3-3-3-6-6-6-6-6-8-8xxxx5-5xxxx-|
----------------6-6-6-6---------------------------6-6xxxx---xxxx-|


--------------------------------------------------------|
--------------------------------------------------------|
5-5-5-5-8-8-8-8---------7-7-7-7-------------------------|
5-5-5-5-8-8-8-8-8-8-8-8-7-7-7-7-6-6-6-6-5-5-5-5-3-3-3-3-|
3-3-3-3-6-6-6-6-8-8-8-8-5-5-5-5-6-6-6-6-5-5-5-5-3-3-3-3-|
----------------6-6-6-6---------4-4-4-4-3-3-3-3-1-1-1-1-|

Intro 4x

Verse
Yet again Bass only

Pre Chorus
--------------------------------:
--------------------------------:
--------------------------------:  2X
6-6-6-6-6-6-6-6-5-5-5-5-3-3-3-3-:  2X
6-6-6-6-6-6-6-6-5-5-5-5-3-3-3-3-:
4-4-4-4-4-4-4-4-3-3-3-3-1-1-1-1-:
Chorus

Intro 4x

Pause

Guitar Solo
-----------------------------:
-----------------------------:
-----------------------------:  4X
-----------------------------:  4X
--6-6-6/9-----------------9--:
-----------9-9-8-10-8-9------:

Pre-Chorus 4X
Chorus 2X
Tap to rate this tab
 
# A B C D E F G H I J K L M N O P Q R S T U V W X Y Z