Song name
# A B C D E F G H I J K L M N O P Q R S T U V W X Y Z

Skillet - A Little More tab

I don't feel like doing the whole song but this is the chorus of A Little More.
Its in Drop D. Don't feel like timing it right now but you get the concept.

Probably recommended
|-----------------|-----------------|-----------------|---------------------|
|-----------------|-----------------|-----------------|---------------------|
|---------8-8-8-8-|-----------------|---------8-8-8-8-|---------------------|
|-7-7-7-7-8-8-8-8-|-8-8-8-8-3-3-3-3-|-7-7-7-7-8-8-8-8-|-8-8-8-8-10-10-10-10-|
|-5-5-5-5-6-6-6-6-|-8-8-8-8-3-3-3-3-|-5-5-5-5-6-6-6-6-|-8-8-8-8-10-10-10-10-|
|-5-5-5-5---------|-8-8-8-8-3-3-3-3-|-5-5-5-5---------|-8-8-8-8-10-10-10-10-|

|-----------------|-----------------|-----------------|---------------------|
|-----------------|-----------------|-----------------|---------------------|
|---------8-8-8-8-|-----------------|-----------------|---------------------|
|-7-7-7-7-8-8-8-8-|-8-8-8-8-3-3-3-3-|-7-7-7-7-1-1-1-1-|-7-7-7-7-3-----------|
|-5-5-5-5-6-6-6-6-|-8-8-8-8-3-3-3-3-|-5-5-5-5-1-1-1-1-|-5-5-5-5-3-----------|
|-5-5-5-5---------|-8-8-8-8-3-3-3-3-|-5-5-5-5-1-1-1-1-|-5-5-5-5-3-----------|


This is how i played the chorus:
|-----------------|-----------------|-----------------|---------------------|
|-----------------|-----------------|-----------------|---------------------|
|---------8-8-8-8-|-3-3-3-3---------|---------8-8-8-8-|-3-3-3-3-5-5-5-5-----|
|-7-7-7-7-8-8-8-8-|-3-3-3-3-3-3-3-3-|-7-7-7-7-8-8-8-8-|-3-3-3-3-5-5-5-5-----|
|-5-5-5-5-6-6-6-6-|-1-1-1-1-3-3-3-3-|-5-5-5-5-6-6-6-6-|-1-1-1-1-3-3-3-3-----|
|-5-5-5-5---------|---------3-3-3-3-|-5-5-5-5---------|---------------------|

|-----------------|-----------------|-----------------|---------------------|
|-----------------|-----------------|-----------------|---------------------|
|---------8-8-8-8-|-3-3-3-3---------|-----------------|---------------------|
|-7-7-7-7-8-8-8-8-|-3-3-3-3-3-3-3-3-|-7-7-7-7-1-1-1-1-|-7-7-7-7-3-----------|
|-5-5-5-5-6-6-6-6-|-1-1-1-1-3-3-3-3-|-5-5-5-5-1-1-1-1-|-5-5-5-5-3-----------|
|-5-5-5-5---------|---------3-3-3-3-|-5-5-5-5-1-1-1-1-|-5-5-5-5-3-----------|

If there's needed for corrections just leave a comment. 

Tap to rate this tab
# A B C D E F G H I J K L M N O P Q R S T U V W X Y Z