Song name
# A B C D E F G H I J K L M N O P Q R S T U V W X Y Z

Skillet - You Are My Hope tab

Intro-Verse-Outro

E------------------------------|
A------------------------------|
D------------------------------|
G------------------------------|
B--5---5-6---5---3-------------|
E----8------8---8----15--------|

Pre-Chorus

E-----------------------------|
A-----------------------------|
D-----------------------------|
G-----------------------------|
B-5--6---5--6-----------------|
E------10-----10--------------|

Chorus

E----------------------------|
A----------------------------|
D----------------------------|
G----------------------------|
B-5-6---5-6------------------|
E------8------10-------------|

(repeat multiple times)

Bridge

E-----------------------------------|
A-----------------------------------|
D-----------------------------------|
G-----------------------------------|
B-6---6--6---6--6---6--5---5--------|
E---8-------8-------8------8--------|
Tap to rate this tab
 
# A B C D E F G H I J K L M N O P Q R S T U V W X Y Z