Song name
# A B C D E F G H I J K L M N O P Q R S T U V W X Y Z

Skillet - Madness In Me tab

-------------------------------------------------------------------------------
                             MADNESS IN ME - Skillet - Rise
-------------------------------------------------------------------------------

Tuning: Drop C

Intro
e|------------------------------------------------------------------------------|
B|------------------------------------------------------------------------------|
G|------------5-----------------------------------------------------------------|
D|-3-0----0-3-5-3-0----0-3-8-7--------------------------------------------------|
A|-3-0----0-3-3-3-0----0-3-8-7--------------------------------------------------|
E|-3-0----0-3---3-0----0-3-8-7--------------------------------------------------|

Verse
e|-----------------------------------------------------------------------------|
B|-----------------------------------------------------------------------------|
G|-----------------------------------------------------------------------------|
D|-----------------------------------------------------------------------------|
A|-------------3---------------1-0---------------------------------------------|
E|--3-0----0-3---3-0--0-3-0----------------------------------------------------|

Play that a while then intro again to finish verse

Chorus
e|-----------------------------------------------------------------------------------|
B|-----------------------------------------------------------------------------------|
G|------------------5 (x8)-----------------------------------------------------------|
D|-0 (x8)---3 (x8)---5 (x8)---5 (x8)-------------------------------------------------|
A|-0 (x8)---3 (x8)---3 (x8)---5 (x8)-------------------------------------------------|
E|-0 (x8)---3 (x8)------------5 (x8)-------------------------------------------------|

Then play intro again...then verse (verse+intro)

Then chorus again. Play the chorus during the solo for the rhythm guitar part.

The song finishes with the chorus and then the intro again.

Hopefully I did well! This is my first tab


************************************

| /   slide up
| \   slide down
| h   hammer-on
| p   pull-off
| ~   vibrato
| +   harmonic
| x   Mute note
| b   Bend
| pb  Pre-bend
| br  Bend release
| pbr Pre-bend release
| brb Bend release bend

************************************
Tap to rate this tab
 
# A B C D E F G H I J K L M N O P Q R S T U V W X Y Z