Song name
# A B C D E F G H I J K L M N O P Q R S T U V W X Y Z

Skillet - Not Gonna Die tab

-------------------------------------------------------------------------------
                             NOT GONNA DIE - Skillet
-------------------------------------------------------------------------------
Tabbed by: MittenMatt7
E-mail: mitten_matt@hotmail.com

Tuning: Drop C   CGCFAD

Intro:
D|-------------------------------------------------------------------|
A|-------------------------------------------------------------------|
F|-------------------------------------------------------------------|
C|--1-1-1-1-1-1-1-1-3-3-3-3-3-3-3-3-5-5-5-5-5-5-5-5-8-8-8-8-8-8-8-8--|
G|--1-1-1-1-1-1-1-1-3-3-3-3-3-3-3-3-5-5-5-5-5-5-5-5-8-8-8-8-8-8-8-8--|
C|--1-1-1-1-1-1-1-1-3-3-3-3-3-3-3-3-5-5-5-5-5-5-5-5-8-8-8-8-8-8-8-8--|

D|----------------------------------|
A|----------------------------------|
F|----------------------------------|
C|--1-1-1-1-1-1-1-1-4-4-4-4-4-4-4-4-|
G|--1-1-1-1-1-1-1-1-4-4-4-4-4-4-4-4-|
C|--1-1-1-1-1-1-1-1-4-4-4-4-4-4-4-4-|

D|----------------------------------|
A|----------------------------------|
F|----------------------------------|
C|--5-5---5-5---5-5---5-5---8---3---| x2
G|--5-5---5-5---5-5---5-5---8---3---|
C|--5-5---5-5---5-5---5-5---8---3---|

Verse:                    Pre-Chorus:
D|-------------------|    |--15-15-15-15-15-15-17---14--|
A|-------------------|    |-----------------------------|
F|-------------------|    |-----------------------------|
C|--5-5---5-5---5-5--| x8 |-----------------------------|
G|--5-5---5-5---5-5--|    |-----------------------------|
C|--5-5---5-5---5-5--|    |-----------------------------|

Chorus:
D|-------------------------------------------------------------------|
A|-------------------------------------------------------------------|
F|-------------------------------------------------------------------|
C|--1-1-1-1-1-1-1-1-5-5-5-5-5-5-5-5-8-8-8-8-8-8-8-8-3-3-3-3-7-8-10-8-|
G|--1-1-1-1-1-1-1-1-5-5-5-5-5-5-5-5-8-8-8-8-8-8-8-8-3-3-3-3-7-8-10-8-|
C|--1-1-1-1-1-1-1-1-5-5-5-5-5-5-5-5-8-8-8-8-8-8-8-8-3-3-3-3-7-8-10-8-|

D|-------------------------------------------------------------------|
A|-------------------------------------------------------------------|
F|-------------------------------------------------------------------|
C|--1-1-1-1-1-1-1-1-5-5-5-5-5-5-5-5-8-8-8-8-8-8-8-8-3-3-3-3-3-3-3-3--|
G|--1-1-1-1-1-1-1-1-5-5-5-5-5-5-5-5-8-8-8-8-8-8-8-8-3-3-3-3-3-3-3-3--|
C|--1-1-1-1-1-1-1-1-5-5-5-5-5-5-5-5-8-8-8-8-8-8-8-8-3-3-3-3-3-3-3-3--|

D|-------------|
A|-------------|
F|-------------|
C|--0-0-0-0-0--|
G|--0-0-0-0-0--|
C|--0-0-0-0-0--|

Post-Chorus:
D|-------------------------------------------------------------------|
A|-------------------------------------------------------------------|
F|-------------------------------------------------------------------|
C|--1-1-1-1-1-1-1-1-3-3-3-3-3-3-3-3-5-5-5-5-5-5-5-5-8-8-8-8-8-8-8-8--|
G|--1-1-1-1-1-1-1-1-3-3-3-3-3-3-3-3-5-5-5-5-5-5-5-5-8-8-8-8-8-8-8-8--|
C|--1-1-1-1-1-1-1-1-3-3-3-3-3-3-3-3-5-5-5-5-5-5-5-5-8-8-8-8-8-8-8-8--|

D|----------------------------------|
A|----------------------------------|
F|----------------------------------|
C|--1-1-1-1-1-1-1-1-4-4-4-4-4-4-4-4-|
G|--1-1-1-1-1-1-1-1-4-4-4-4-4-4-4-4-|
C|--1-1-1-1-1-1-1-1-4-4-4-4-4-4-4-4-|

Verse
Pre-Chorus
Chorus

Bridge:
D|-----------------------------------------------------------------|
A|-----------------------------------------------------------------|
F|-----------------------------------------------------------------|
C|--1---1---1---1---3---3---3---3---5---5---5---5---3---3---3---3--| x2
G|--1---1---1---1---3---3---3---3---5---5---5---5---3---3---3---3--|
C|--1---1---1---1---3---3---3---3---5---5---5---5---3---3---3---3--|

D|---------------------------------|
A|---------------------------------|
F|---------------------------------|
C|--1---1---1---1---4---4---4---4--|
G|--1---1---1---1---4---4---4---4--|
C|--1---1---1---1---4---4---4---4--|

D|----------------------------------|
A|----------------------------------|
F|----------------------------------|
C|--5-5---5-5---5-5---5-5---8---3---|
G|--5-5---5-5---5-5---5-5---8---3---|
C|--5-5---5-5---5-5---5-5---8---3---|

D|-------------------------------|
A|-------------------------------|
F|-------------------------------|
C|--5-5---5-5---5---3-3-----3-3--|
G|--5-5---5-5---5---3-3-----3-3--|
C|--5-5---5-5---5---3-3-----3-3--|

If anyone can figure out the solo properly then let me know :)

Here's the rhythm part anyway:
D|-----------------------------------------------------------------|
A|-----------------------------------------------------------------|
F|--5---5---5---5---8---8---8---8----------------------------------|
C|--5---5---5---5---8---8---8---8---5---5---5---5---4---4---4---4--|
G|--3---3---3---3---6---6---6---6---5---5---5---5---4---4---4---4--|
C|----------------------------------5---5---5---5---4---4---4---4--|

D|---------------------------------|
A|---------------------------------|
F|--5---5---5---5---8---8---8---8--|
C|--5---5---5---5---8---8---8---8--|
G|--3---3---3---3---6---6---6---6--|
C|---------------------------------|

D|---------------------------------------------------------|
A|---------------------------------------------------------|
F|---------------------------------------------------------|
C|--5-5---5-5---5-5---5-5---8---3---5-5---5-5---5-5---5-5--|
G|--5-5---5-5---5-5---5-5---8---3---5-5---5-5---5-5---5-5--|
C|--5-5---5-5---5-5---5-5---8---3---5-5---5-5---5-5---5-5--|

Chorus
Intro

Outro:
D|---------------------------------------------------------|
A|---------------------------------------------------------|
F|---------------------------------------------------------|
C|--5-5---5-5---5-5---5-5---8---3---5-5---5-5---5-5---5-5--|
G|--5-5---5-5---5-5---5-5---8---3---5-5---5-5---5-5---5-5--|
C|--5-5---5-5---5-5---5-5---8---3---5-5---5-5---5-5---5-5--|
************************************

| /   slide up
| \   slide down
| h   hammer-on
| p   pull-off
| ~   vibrato
| +   harmonic
| x   Mute note
| b   Bend
| pb  Pre-bend
| br  Bend release
| pbr Pre-bend release
| brb Bend release bend

************************************
Tap to rate this tab
 
# A B C D E F G H I J K L M N O P Q R S T U V W X Y Z