Song name
# A B C D E F G H I J K L M N O P Q R S T U V W X Y Z

Skillet - Circus For A Psycho tab

-------------------------------------------------------------------------------
                        Circus for a Psycho - Skillet
-------------------------------------------------------------------------------
Tabbed by: Exprion

Tuning: dBGDAD

Lead for most of the song:

d|-12-0-7-0-12-0-7-0-13-0-8-0-13-0-8-0-12-0-7-0-12-0-7-0-15-15-13-13-12-12-13-13---|
B|---------------------------------------------------------------------------------|
G|---------------------------------------------------------------------------------|
D|---------------------------------------------------------------------------------|
A|---------------------------------------------------------------------------------|
D|---------------------------------------------------------------------------------|

Intro:

d|---------------------------------------------------------------------------|
B|---------------------------------------------------------------------------|
G|-7-------------------------------------------------------------------------|
D|-7--------Hold-------------------------------------------------------------|
A|-5-------------------------------------------------------------------------|
D|---------------------------------------------------------------------------|

Second part of the intro and middle of first verse:

d|------------------------------------------------------------------------------|
B|------------------------------------------------------------------------------|
G|--7--5--7---------------------------------------------------------------------|
D|--7--5--7--5--5-7-3-----------------------------------------------------------|
A|--5--3--5--5--5-7-3-----------------------------------------------------------|
D|-----------5--5-7-3-----------------------------------------------------------|

Both verses and post chorus:

e|------------------------------------------------------------------------------|
B|------------------------------------------------------------------------------|
G|------------------------------------------------------------------------------|
D|-0---0-0---0-0---0-0---5-7-3--------------------------------------------------|
A|-0---0-0---0-0---0-0---5-7-3--------------------------------------------------|
E|-0---0-0---0-0---0-0---5-7-3--------------------------------------------------|

Chorus
                           *     *
d|---------------------------------------------------------------------------|
B|---------------------------------------------------------------------------|
G|-------------------------3-----5-------------------------------------------|
D|-5555-8888-0000-3333-----3-x16-5-x16--Then go back to post chorus----------|
A|-5555-8888-0000-3333-x3--1-----3-------------------------------------------|
D|-5555-8888-0000-3333-------------------------------------------------------|

I dont have the solo worked out yet, and sorry if this is confusing, this is my first tab =)
Tap to rate this tab
# A B C D E F G H I J K L M N O P Q R S T U V W X Y Z