Song name
# A B C D E F G H I J K L M N O P Q R S T U V W X Y Z

Skillet - Madness In Me tab

Drop C     (C G C F A D)

Intro
  
D||-----------------------------------------|
A||-----------------------------------------|
F||---------------5-------------------------|
C||--3--0---0--3--5--3--0---0--3--0--8--7---|
G||--3--0---0--3--3--3--0---0--3--0--8--7---|
C||--3--0---0--3-----3--0---0--3--0--8--7---|

D||-----------------------------------------|
A||-----------------------------------------|
F||---------------5------------------5------|
C||--3--0---0--3--5--3--0---0--3--0--5--5---|
G||--3--0---0--3--3--3--0---0--3--0--3--5---|
C||--3--0---0--3-----3--0---0--3--0-----5---|

Verse

D||-----------------------------------------|
A||-----------------------------------------|
F||-----------------------------------------|
C||-----------------------------------------|
G||---------------3-------------------------|
C||--3--0---0--3-----3--0---0--3--0--8--7---|

D||-----------------------------------------|
A||-----------------------------------------|
F||-----------------------------------------|
C||-----------------------------------------|
G||---------------3------------------3------|
C||--3--0---0--3-----3--0---0--3--0-----5---|

Chorus

D||-----------|----------|----------|----------| *2
A||-----------|----------|----------|----------|
F||-----------|----------|-55555555-|----------|
C||--00000000-|-33333333-|-55555555-|-55555555-|
G||--00000000-|-33333333-|-33333333-|-55555555-|
C||--00000000-|-33333333-|----------|-55555555-|

Intro

Verse

Chorus

Solo

D||--------------------------------------------|
A||--------------------------------------------|
F||--10-10-10-10-9-9---12-12-12-12-5-5(6)5-----|
C||--------------------------------------------|
G||--8--8--8--8--7-7---10-10-10-10-7-7(8)7-----|
C||--------------------------------------------|

D||--------------------------------------------|
A||---------------------10-10-10-10(11)10------|
F||--10-10-10-10-9-9---------------------------|
C||---------------------7--7--7--7(8)7---------|
G||--8--8--8--8--7-7---------------------------|
C||--------------------------------------------|

Intro

Verse

Chorus

D||-----------|----------|----------|----------| *2
A||-----------|----------|----------|----------|
F||-----------|----------|-55555555-|----------|
C||--00000000-|-33333333-|-55555555-|-55555555-|
G||--00000000-|-33333333-|-33333333-|-55555555-|
C||--00000000-|-33333333-|----------|-55555555-|

D||-----------|----------|----------|----------| 
A||-----------|----------|----------|----------|
F||-----------|----------|-55555555-|----------|
C||--00000000-|-33333333-|-55555555-|-5555-----|
G||--00000000-|-33333333-|-33333333-|-5555-15/0| Pick slide
C||--00000000-|-33333333-|----------|-5555-----|

D||-----------|----------|----------|----------| 
A||-----------|----------|----------|----------|
F||-----------|----------|-55555555-|----------|
C||--00000000-|-33333333-|-55555555-|-55555555-|
G||--00000000-|-33333333-|-33333333-|-55555555-|
C||--00000000-|-33333333-|----------|-55555555-|

Intro
Tap to rate this tab
# A B C D E F G H I J K L M N O P Q R S T U V W X Y Z