Song name
# A B C D E F G H I J K L M N O P Q R S T U V W X Y Z

Skillet - Circus For A Psycho tab

Tabbed by: SpiritofRock

Tuning: Dropped D: D A D G B E

Intro:

E|-------------------------------------------------|
B|-15-15-10-10-15-15-10-10-16-16-10-10-16-16-10-10-|
G|-------------------------------------------------|
D|-------------------------------------------------|
A|-------------------------------------------------|
D|-------------------------------------------------|

E|-------------------------13-13-11-11-10-10-11-11-|
B|-15-15-10-10-15-15-10-10-------------------------|
G|-------------------------------------------------|
D|-------------------------------------------------|
A|-------------------------------------------------|
D|-------------------------------------------------|2x



E|-------------------------------------------------|
B|-------------------------------------------------|
G|-------------------------------------------------|
D|-0~--0-0-0-0-0-0---------------------------------|
A|-0~--0-0-0-0-0-0--5-5-3-5------------------------|
D|-0~--0-0-0-0-0-0----------5^-3~------------------|
       p.m.------|

E|---------------------------|-----------------------|
B|---------------------------|-----------------------|
G|-----5---------------------|-----5-----------------|
D|-0---5---0----5----5--7--3-|-0---5---0---5---3-4-5-|
A|-0---3---0----5----5--7--3-|-0---3---0---5---3-4-5-|
D|-0-------0----5----5--7--3-|-0-------0---5---3-4-5-| 2x

Verse 1:

E|----------------------------------|--------------------------------------|
B|----------------------------------|--------------------------------------|
G|----------------------------------|--------------------------------------|
D|-0---0--0----0--0----0--0---5-7-3-|-0---0--0----0--0----0----------------|
A|-0---0--0----0--0----0--0---5-7-3-|-0---0--0----0--0----0--5-5-3-5-------|
D|-0---0--0----0--0----0--0---5-7-3-|-0---0--0----0--0----0----------5^-3~-|

Interlude:

E|---------------------------|-----------------------|
B|---------------------------|-----------------------|
G|-----5---------------------|-----5-----------------|
D|-0---5---0----5----5--7--3-|-0---5---0---5---3-4-5-|
A|-0---3---0----5----5--7--3-|-0---3---0---5---3-4-5-|
D|-0-------0----5----5--7--3-|-0-------0---5---3-4-5-|

Verse 2:

E|----------------------------------|--------------------------------------|
B|----------------------------------|--------------------------------------|
G|----------------------------------|--------------------------------------|
D|-0---0--0----0--0----0--0---5-7-3-|-0---0--0----0--0----0----------------|
A|-0---0--0----0--0----0--0---5-7-3-|-0---0--0----0--0----0--5-5-3-5-------|
D|-0---0--0----0--0----0--0---5-7-3-|-0---0--0----0--0----0----------5^-3~-|


Chorus:

E|-----------------|-----------------|-----------------------------------|
B|-----------------|-----------------|-----------------------------------|
G|-----------------|-----------------|-----------------------------------|
D|-5-5-5-8-8-8-8-8-|-0-0-0-3-3-3-3-3-|-5-5-5-8-8-8-8-8-|-0-0-0-0-3-3-3-3-|
A|-5-5-5-8-8-8-8-8-|-0-0-0-3-3-3-3-3-|-5-5-5-8-8-8-8-8-|-0-0-0-0-3-3-3-3-|
D|-5-5-5-8-8-8-8-8-|-0-0-0-3-3-3-3-3-|-5-5-5-8-8-8-8-8-|-0-0-0-0-3-3-3-3-|

E|-----------------|-----------------|-----------------|-----------------|
B|-----------------|-----------------|-----------------|-----------------|
G|-----------------|-----------------|-3-3-3-3-3-3-3-3-|-3-3-3-3-3-3-3-3-|
D|-5-5-5-8-8-8-8-8-|-0-0-0-3-3-3-3-3-|-3-3-3-3-3-3-3-3-|-3-3-3-3-3-3-3-3-|
A|-5-5-5-8-8-8-8-8-|-0-0-0-3-3-3-3-3-|-1-1-1-1-1-1-1-1-|-1-1-1-1-1-1-1-1-|
D|-5-5-5-8-8-8-8-8-|-0-0-0-3-3-3-3-3-|-----------------|-----------------|
                                      p.m.------------------------------|

E|-----------------|-----------------|
B|-----------------|-----------------|
G|-5-5-5-5-5-5-5-5-|-5-5-5-5-5-5-5-5-|
D|-5-5-5-5-5-5-5-5-|-5-5-5-5-5-5-5-5-|
A|-3-3-3-3-3-3-3-3-|-3-3-3-3-3-3-3-3-|
D|-----------------|-----------------|
  p.m.------------------------------|



Interlude before Chorus 2:
E|---------------------------------|
B|---------------------------------|
G|---------------------------------|
D|---------------------------------|
A|-5-5-5-3-3-5-5-5-----------------|
D|-----------------5-5-5-3-3-5-5-5-|



I still try to figure out Solo and Solo Chords
    

Tap to rate this tab
 
# A B C D E F G H I J K L M N O P Q R S T U V W X Y Z