Song name
# A B C D E F G H I J K L M N O P Q R S T U V W X Y Z

Skillet - Madness In Me tab

Skillet- MADNESS IN ME

DROP C TUNING (CGCFAD)

Intro
|----------------------------------------------------|
|----------------------------------------------------|
|--------5-------------------------5-------------5---|
|3-3-0-3-5-3---0-3-0-8-7---3-3-0-3-5-3-0---0-3-0-5-5-|
|3-3-0-3-3-3---0-3-0-8-7---3-3-0-3-3-3-0---0-3-0-3-5-|
|3-3-0-3---3---0-3-0-8-7---3-3-0-3---3-0---0-3-0---5-|

Verse
|------------------------------------------------------|
|------------------------------------------------------|
|------------------------------------------------------|
|------------------------------------------------------|
|--------3-------------1-0-----------3-------------3---|
|3-3-0-3---3-0---0-3-0-------3-3-0-3---3-0---0-3-0---5-|

|------------------------------------------------------|
|------------------------------------------------------|
|--------5---------------------------5-------------5---|
|3-3-0-3-5-3-0---0-3-0-8-7---3-3-0-3-5-3-0---0-3-0-5-5-|
|3-3-0-3-3-3-0---0-3-0-8-7---3-3-0-3-3-3-0---0-3-0-3-5-|
|3-3-0-3---3-0---0-3-0-8-7---3-3-0-3---3-0---0-3-0---5-|

Chorus
|----------------------------------------------------------------------|
|----------------------------------------------------------------------|
|------------------------------------5-5-5-5-5-5-5-5-------------------|
|0-0-0-0-0-0-0-0---3-3-3-3-3-3-3-3---5-5-5-5-5-5-5-5---5-5-5-5-5-5-5-5-|
|0-0-0-0-0-0-0-0---3-3-3-3-3-3-3-3---3-3-3-3-3-3-3-3---5-5-5-5-5-5-5-5-|
|0-0-0-0-0-0-0-0---3-3-3-3-3-3-3-3---------------------5-5-5-5-5-5-5-5-|

|----------------------------------------------------------------------|
|----------------------------------------------------------------------|
|----------------------------------------------------------------------|
|0-0-0-0-0-0-0-0---8-8-8-8-8-8-8-8---3-3-3-3-3-3-3-3---5-5-5-5-5-5-5-5-|
|0-0-0-0-0-0-0-0---8-8-8-8-8-8-8-8---3-3-3-3-3-3-3-3---5-5-5-5-5-5-5-5-|
|0-0-0-0-0-0-0-0---8-8-8-8-8-8-8-8---3-3-3-3-3-3-3-3---5-5-5-5-5-5-5-5-|

Verse 2
|------------------------------------------------------|
|------------------------------------------------------|
|--------5---------------------------5-------------5---|
|3-3-0-3-5-3-0---0-3-0-8-7---3-3-0-3-5-3-0---0-3-0-5-5-|
|3-3-0-3-3-3-0---0-3-0-8-7---3-3-0-3-3-3-0---0-3-0-3-5-|
|3-3-0-3---3-0---0-3-0-8-7---3-3-0-3---3-0---0-3-0---5-|

|------------------------------------------------------|
|------------------------------------------------------|
|------------------------------------------------------|
|------------------------------------------------------|
|--------3-------------1-0-----------3-------------3---|
|3-3-0-3---3-0---0-3-0-------3-3-0-3---3-0---0-3-0---5-|

|------------------------------------------------------|
|------------------------------------------------------|
|--------5---------------------------5-------------5---|
|3-3-0-3-5-3-0---0-3-0-8-7---3-3-0-3-5-3-0---0-3-0-5-5-|
|3-3-0-3-3-3-0---0-3-0-8-7---3-3-0-3-3-3-0---0-3-0-3-5-|
|3-3-0-3---3-0---0-3-0-8-7---3-3-0-3---3-0---0-3-0---5-|

Chorus 2
|----------------------------------------------------------------------|
|----------------------------------------------------------------------|
|------------------------------------5-5-5-5-5-5-5-5-------------------|
|0-0-0-0-0-0-0-0---3-3-3-3-3-3-3-3---5-5-5-5-5-5-5-5---5-5-5-5-5-5-5-5-|
|0-0-0-0-0-0-0-0---3-3-3-3-3-3-3-3---3-3-3-3-3-3-3-3---5-5-5-5-5-5-5-5-|
|0-0-0-0-0-0-0-0---3-3-3-3-3-3-3-3---------------------5-5-5-5-5-5-5-5-|

|----------------------------------------------------------------------|
|----------------------------------------------------------------------|
|----------------------------------------------------------------------|
|0-0-0-0-0-0-0-0---8-8-8-8-8-8-8-8---3-3-3-3-3-3-3-3---5-5-5-5-5-5-5-5-|
|0-0-0-0-0-0-0-0---8-8-8-8-8-8-8-8---3-3-3-3-3-3-3-3---5-5-5-5-5-5-5-5-|
|0-0-0-0-0-0-0-0---8-8-8-8-8-8-8-8---3-3-3-3-3-3-3-3---5-5-5-5-5-5-5-5-|

Solo- guitar 1
|p-1---------------------------------------------------------------------------------|
|------------------------------------------------------------------------------------|
|----10-10-10-10-9-9-9---12-12-12-12-7-7-b---10-10-10-10-9-9-9---14-14-14-14-b-------|
|--------------------------------------------------------------------------------X-2-|
|-----8--8--8--8-7-7-7---10-10-10-10-5-5-b----8--8--8--8-7-7-7---12-12-12-12-b-------|
|------------------------------------------------------------------------------------|

Solo- guitar 2
|p-2-----------------------------------------------------------------------|
|--------------------------------------------------------------------------|
|----------------------------------------5-5-5-5-5-5-5-5-------------------|
|----0-0-0-0-0-0-0-0---3-3-3-3-3-3-3-3---5-5-5-5-5-5-5-5---5-5-5-5-5-5-5-5-|
|----0-0-0-0-0-0-0-0---3-3-3-3-3-3-3-3---3-3-3-3-3-3-3-3---5-5-5-5-5-5-5-5-|
|----0-0-0-0-0-0-0-0---3-3-3-3-3-3-3-3---------------------5-5-5-5-5-5-5-5-|

|----------------------------------------------------------------------|
|----------------------------------------------------------------------|
|----------------------------------------------------------------------|
|0-0-0-0-0-0-0-0---8-8-8-8-8-8-8-8---3-3-3-3-3-3-3-3---5-5-5-5-5-5-5-5-|
|0-0-0-0-0-0-0-0---8-8-8-8-8-8-8-8---3-3-3-3-3-3-3-3---5-5-5-5-5-5-5-5-|
|0-0-0-0-0-0-0-0---8-8-8-8-8-8-8-8---3-3-3-3-3-3-3-3---5-5-5-5-5-5-5-5-|

"post-solo"
|------------------------------------------------------|
|------------------------------------------------------|
|--------5---------------------------5-------------5---|
|3-3-0-3-5-3-0---0-3-0-8-7---3-3-0-3-5-3-0---0-3-0-5-5-|
|3-3-0-3-3-3-0---0-3-0-8-7---3-3-0-3-3-3-0---0-3-0-3-5-|
|3-3-0-3---3-0---0-3-0-8-7---3-3-0-3---3-0---0-3-0---5-|

Chorus 3
|----------------------------------------------------------------------|
|----------------------------------------------------------------------|
|------------------------------------5-5-5-5-5-5-5-5-------------------|
|0-0-0-0-0-0-0-0---3-3-3-3-3-3-3-3---5-5-5-5-5-5-5-5---5-5-5-5-5-5-5-5-|
|0-0-0-0-0-0-0-0---3-3-3-3-3-3-3-3---3-3-3-3-3-3-3-3---5-5-5-5-5-5-5-5-|
|0-0-0-0-0-0-0-0---3-3-3-3-3-3-3-3---------------------5-5-5-5-5-5-5-5-|

|----------------------------------------------------------------------|
|----------------------------------------------------------------------|
|----------------------------------------------------------------------|
|0-0-0-0-0-0-0-0---8-8-8-8-8-8-8-8---3-3-3-3-3-3-3-3---5-5-5-5-5-5-5-5-|
|0-0-0-0-0-0-0-0---8-8-8-8-8-8-8-8---3-3-3-3-3-3-3-3---5-5-5-5-5-5-5-5-|
|0-0-0-0-0-0-0-0---8-8-8-8-8-8-8-8---3-3-3-3-3-3-3-3---5-5-5-5-5-5-5-5-|

|----------------------------------------------------------------------|
|----------------------------------------------------------------------|
|------------------------------------5-5-5-5-5-5-5-5-------------------|
|0-0-0-0-0-0-0-0---3-3-3-3-3-3-3-3---5-5-5-5-5-5-5-5---5-5-5-5-5-5-5-5-|
|0-0-0-0-0-0-0-0---3-3-3-3-3-3-3-3---3-3-3-3-3-3-3-3---5-5-5-5-5-5-5-5-|
|0-0-0-0-0-0-0-0---3-3-3-3-3-3-3-3---------------------5-5-5-5-5-5-5-5-|

|--------------------------------------------------------------|
|--------------------------------------------------------------|
|--------------------------------------------------------------|
|0-0-0-0-0-0-0-0---8-8-8-8-8-8-8-8---3-3-3-3-3-3-3-3---5-5-5-5-|
|0-0-0-0-0-0-0-0---8-8-8-8-8-8-8-8---3-3-3-3-3-3-3-3---5-5-5-5-|
|0-0-0-0-0-0-0-0---8-8-8-8-8-8-8-8---3-3-3-3-3-3-3-3---5-5-5-5-|

Outro
|------------------------------------------------------|
|------------------------------------------------------|
|--------5---------------------------5-------------5---|
|3-3-0-3-5-3-0---0-3-0-8-7---3-3-0-3-5-3-0---0-3-0-5-5-|
|3-3-0-3-3-3-0---0-3-0-8-7---3-3-0-3-3-3-0---0-3-0-3-5-|
|3-3-0-3---3-0---0-3-0-8-7---3-3-0-3---3-0---0-3-0---5-|

|------------------------------------------|
|------------------------------------------|
|--------5---------------------------5-----|
|3-3-0-3-5-3-0---0-3-0-8-7---3-3-0-3-5-3-0-|
|3-3-0-3-3-3-0---0-3-0-8-7---3-3-0-3-3-3-0-|
|3-3-0-3---3-0---0-3-0-8-7---3-3-0-3---3-0-|
Tap to rate this tab
# A B C D E F G H I J K L M N O P Q R S T U V W X Y Z