Song name
# A B C D E F G H I J K L M N O P Q R S T U V W X Y Z

Skillet - My Religion tab

My Religion by Skillet (Rise)

Drop D


Intro/Verse 1 x4

D--7-7--7----------7-7--7----------3-3--3----------3-3----------|
A--7-7--7-7-7-5-3--7-7--7-7-7-5-3--3-3--3-6-6-5-3--3-3--6-3-5-7-|
D---------------------------------------------------------------|
G---------------------------------------------------------------|
B---------------------------------------------------------------|
E---------------------------------------------------------------|

Prechorus

D--2-2--2----------2-2--2---------00-----00-----00-----00------|
A--2-2--2-5-3-5-7--2-2--2-5-3-5-7----5-5----5-5----5-5----5-5--|
D------------------------------------7-7----7-7----7-7----7-7--|
G--------------------------------------------------------------|
B--------------------------------------------------------------|
E--------------------------------------------------------------|


D--------------------------------------------------------------|
A----------6-6--5-3-0------------------------------------------|
D--7-7-5-5-----------------------------------------------------|
G--------------------------------------------------------------|
B--------------------------------------------------------------|
E--------------------------------------------------------------|

Chorus x2 (2nd time take out the final 3's so the chorus would be
           7,3,5,3,7,3,5)

D--7-7-7-7-7-7-7-7--7-7-7-7-7-7--3-3-3-3-3-3-3-3--3-3-3-3-3-3--|
A--7-7-7-7-7-7-7-7--7-7-7-7-7-7--3-3-3-3-3-3-3-3--3-3-3-3-3-3--|
D--------------------------------------------------------------|
G--------------------------------------------------------------|
B--------------------------------------------------------------|
E--------------------------------------------------------------|


D--5-5-5-5-5-5-5-5--5-5-5-5-5-5--3-3-3-3-3-3-3-3--3-3-3-3-3-3--|
A--5-5-5-5-5-5-5-5--5-5-5-5-5-5--3-3-3-3-3-3-3-3--3-3-3-3-3-3--|
D--------------------------------------------------------------|
G--------------------------------------------------------------|
B--------------------------------------------------------------|
E--------------------------------------------------------------|

Postchorus/Verse 2 x3

D--7-7--7----------7-7--7----------3-3--3----------3-3----------|
A--7-7--7-7-7-5-3--7-7--7-7-7-5-3--3-3--3-6-6-5-3--3-3--6-3-5-7-|
D---------------------------------------------------------------|
G---------------------------------------------------------------|
B---------------------------------------------------------------|
E---------------------------------------------------------------|

Prechorus

D--2-2--2----------2-2--2---------00-----00-----00-----00------|
A--2-2--2-5-3-5-7--2-2--2-5-3-5-7----5-5----5-5----5-5----5-5--|
D------------------------------------7-7----7-7----7-7----7-7--|
G--------------------------------------------------------------|
B--------------------------------------------------------------|
E--------------------------------------------------------------|


D--------------------------------------------------------------|
A----------6-6--5-3-0------------------------------------------|
D--7-7-5-5-----------------------------------------------------|
G--------------------------------------------------------------|
B--------------------------------------------------------------|
E--------------------------------------------------------------|

Chorus x2 (2nd time take out the final 3's so the chorus would be
           7,3,5,3,7,3,5)

D--7-7-7-7-7-7-7-7--7-7-7-7-7-7--3-3-3-3-3-3-3-3--3-3-3-3-3-3--|
A--7-7-7-7-7-7-7-7--7-7-7-7-7-7--3-3-3-3-3-3-3-3--3-3-3-3-3-3--|
D--------------------------------------------------------------|
G--------------------------------------------------------------|
B--------------------------------------------------------------|
E--------------------------------------------------------------|


D--5-5-5-5-5-5-5-5--5-5-5-5-5-5--3-3-3-3-3-3-3-3--3-3-3-3-3-3--|
A--5-5-5-5-5-5-5-5--5-5-5-5-5-5--3-3-3-3-3-3-3-3--3-3-3-3-3-3--|
D--------------------------------------------------------------|
G--------------------------------------------------------------|
B--------------------------------------------------------------|
E--------------------------------------------------------------|

Bridge

D--7-7--7----------7-7--7----------3-3--3----------3-3-----------|  x2
A--7-7--7-7-7-5-3--7-7--7-7-7-5-3--3-3--3-6-6-5-3--3-3--6-3-5-7--|
D----------------------------------------------------------------|
G----------------------------------------------------------------|
B----------------------------------------------------------------|
E----------------------------------------------------------------|

D--7-7-7-7-7-7-7-7-7-7-7-7-7-7-7-7--3-3-3-3-3-3-3-3-3-3-3-3-3-3-3-3-|
A--7-7-7-7-7-7-7-7-7-7-7-7-7-7-7-7--3-3-3-3-3-3-3-3-3-3-3-3-3-3-3-3-|
D-------------------------------------------------------------------|
G-------------------------------------------------------------------|
B-------------------------------------------------------------------|
E-------------------------------------------------------------------|

D--------------------------------------------------------------|
A----------6-6--5-3-0------------------------------------------|
D--7-7-5-5-----------------------------------------------------|
G--------------------------------------------------------------|
B--------------------------------------------------------------|
E--------------------------------------------------------------|

Chorus x2 (2nd time take out the final 3's so the chorus would be
           7,3,5,3,7,3,5)

D--7-7-7-7-7-7-7-7--7-7-7-7-7-7--3-3-3-3-3-3-3-3--3-3-3-3-3-3--|
A--7-7-7-7-7-7-7-7--7-7-7-7-7-7--3-3-3-3-3-3-3-3--3-3-3-3-3-3--|
D--------------------------------------------------------------|
G--------------------------------------------------------------|
B--------------------------------------------------------------|
E--------------------------------------------------------------|


D--5-5-5-5-5-5-5-5--5-5-5-5-5-5--3-3-3-3-3-3-3-3--3-3-3-3-3-3--|
A--5-5-5-5-5-5-5-5--5-5-5-5-5-5--3-3-3-3-3-3-3-3--3-3-3-3-3-3--|
D--------------------------------------------------------------|
G--------------------------------------------------------------|
B--------------------------------------------------------------|
E--------------------------------------------------------------|

Hope This helps this is my first tab so I'm a little nervous... Rock ON!!!
Tap to rate this tab
 
# A B C D E F G H I J K L M N O P Q R S T U V W X Y Z