Song name
# A B C D E F G H I J K L M N O P Q R S T U V W X Y Z

Skillet - Freakshow chords

Highlighted       Show chord diagrams
Freakshow, Skillet

G  |  (G)  |  Bm  |  -  :||  G  |  (G) A  |  Bm  |  G  |  (G) A  |  E5  |  E5  |

VERSE 1
  Bm         (D)        4x
a-9---9---9-7-9--|
e-7---7---7-7-10-|

Welcome to the Freak show!
Step up, status quo!
Hope you enjoy the ride!
Welcome to the Freakshow!
We've got horns and halos!
We ain't afraid and we ain't buyin' their lies!

  E5                     G5                     Bm
d-9-9---9-9---9--|----------------|----------------|----------------|
a-7-7---7-7---7--|-5-5---5-5---5--|-9-9---9-9---9--|-9-9---9-9---9--|
e----------------|-3-3---3-3---3--|-7-7---7-7---7--|-7-7---7-7---7--|


Eat it Drink It Think It Be It Breath It
Guess you don't even know who I am
I do
  E5                     G5                     F#5
d-9-9---9-9---9--|----------------|----------------|------------|
a-7-7---7-7---7--|-5-5---5-5---5--|-4-4---4-4---4--|-4-4-4-4-4--|
e----------------|-3-3---3-3---3--|-2-2---2-2---2--|-2-2-2-2-2--|


Believe it Need it See it Feed It Breath It
Time to make my final stand

CHORUS
               Bm                                    G
Welcome to the Freakshow!   This is where the freaks go!

  D    bend     bend   A       E5  F#5
d-7-7-------7-7------|-----------------|
a-5-5-(7)---5-5-(7)--|-7-7-7-7-2-2-4-4-|
e--------------------|-5-5-5-5-0-0-2-2-|


This is the place, that they, can never take away!

               Bm                                       G
Welcome to the Freakshow! We don't ever need no!

  D    bend     bend   A
d-7-7-------7-7------|-----------------|
a-5-5-(7)---5-5-(7)--|-7-7-7-7-7-7-7-7-|
e--------------------|-5-5-5-5-5-5-5-5-|


One to tell us who to be How to think
I don't care what they believe

  G        D        bend bend bend                 bend
d---------(x)-7-7-9-|------------||--------------9---|----------||
a-5---5---(x)-5-5-7-|-7----7---7-||:----7-9--------7-|-(7)-----:||
e-3---3-------------|------------||-7-7-----10-7-----|----------||


Oh Oh Oh!  Welcome to the Freakshow!

***That's my suggestin, following Tab is taken from the older Version of "romantic" 
Thanks, hope you allow me to!***

VERSE 2

Bm
Welcome to the Outcast!
Bm
Take a step across the tracks!
Bm                             A
We ain't got nothin' to prove!
       Bm
Don't need to start a face
       Bm
Don't need your head to shake
       Bm                                              D
'Cause it's my life to live and I ain't livin' for you!
Em
Eat it
Drink It
Think It
G
Be It
Breath It
           Bm
Guess you don't even know who I am
Em
Believe it
Need it
See it
G
Feed It
Breath It
         F#m
Time to make my final stand

CHORUS
[ Tab from: http://www.guitaretab.com/s/skillet/359655.html ]
                   Bm
Welcome to the Freakshow!
                   G
This is where the freaks go!
              D                    A          Em
This is the place, that they, can never take away!
                  Bm
Welcome to the Freakshow!
                G
We don't ever need no!
One to tell us
D      Em
who to be
D       Em
How to think
A
I don't care what they believe
G      D
Oh Oh Oh!
Em
Welcome to the Freakshow!

Solo

Bm Em D A
Bm Em D A
Bm Em D A
G F#m

BRIDGE

Bm                     D
I'm a freak, naturally
            F#m
Just how I want to be
Bm                           D A
You're a freak, just like me
Bm                     D
I'm a freak, naturally
            F#m
Just how I want to be
Bm
You're a freak, just like me

CHORUS

                   Bm
Welcome to the Freakshow!
                   G
This is where the freaks go!
              D                    A          Em
This is the place, that they, can never take away!
                  Bm
Welcome to the Freakshow!
                G
We don't ever need no!
One to tell us
D      Em
who to be
D       Em
How to think
A
I don't care what they believe

OUTRO

Bm         G
Freakshow! Freakshow!
D                     A               Em
The place, that they, can never take away!
Bm         G
Freakshow! Freakshow!
D                     A
The place, that they, can never take away!
G     D
Oh Oh Oh!
Em
Welcome to the Freakshow!
G     D
Oh Oh Oh!
Em
Welcome to the Freakshow!
G D Em
Tap to rate this tab
# A B C D E F G H I J K L M N O P Q R S T U V W X Y Z