Song name
# A B C D E F G H I J K L M N O P Q R S T U V W X Y Z

Skillet - Hero tab

-----------------------------------------------------------------------------
                             Hero - Skillet
-----------------------------------------------------------------------------
Tabbed by: Michael Glodoski
E-mail:iamnumber12@live.com

Tuning:
Elec. Gtr. 1: Drop Db (C#) 
Elec. Gtr. 2: Drop Db (C#) (w/dist.)
Elec. Gtr. 3: Drop Db (C#) (w/dist.)

Intro: Elec. Gtr. 1
eb|-7777-|     -------14-14-15-15-14-14-------17-17-15-15-14-14-|
Bb|------|     -17-17-------------------15-15-------------------|
Gb|------|(x7) -------------------------------------------------| (x4)
Db|------|     -------------------------------------------------|
Ab|------|     -------------------------------------------------|
Db|------|     -------------------------------------------------|

Intro: Elec. Gtr. 2
eb|-------------------------------------------------------------------------|
Bb|-----7-7-8-8-7-7-----10-10-8-8-7-7-----7-7-8-8-7-7-----10-10-10-10-10-10-|
Gb|-9-9-------------7-7---------------9-9-------------7-7--------7--7--7--7-|
Db|-------------------------------------------------------------------------|
Ab|-------------------------------------------------------------------------|
Db|-------------------------------------------------------------------------|

eb|-----------------------------------|      -8---8---8---8-|
Bb|-----7-7-8-8-7-7-----10-10-8-8-7-7-|      --12--12--12---|
Gb|-9-9-------------7-7---------------| (x4) ---------------|(hold notes)
Db|-----------------------------------|      ---------------|
Ab|-----------------------------------|      ---------------|
Db|-----------------------------------|     ----------------|

Intro: Elec. Gtr. 3 {} = play first time only
eb|----------|  ------------------------------------|      -------------|
Bb|----------|  ------------------------------------|      -------------|
Gb|----------|  ------------------------------------|      -------------|
Db|-(2222-2)-|  -2222-225-550-2222-22-10-101012{12}-| (x2) -2--xx2-xx20-|
Ab|-(2222-2)-|  -2222-225-550-2222-22-10-101012{12}-|      -2--xx2-xx20-|
Db|-(2222-2)-|  -2222-225-550-2222-22-10-101012{12}-|      -2--xx2-xx20-|
     **** *
 
Verse 1 & 2: Elec. Gtr. 3 () = play 2nd Verse only
eb|-------------------------------------------------------------------|
Bb|-------------------------------------------------------------------|
Gb|-------------------------------------------------------------------|
Db|-2222-------------------------------------2222---------------------|
Ab|-2222-3-2----------------2--3-2--------5--2222-3-2-----------------|
Db|-2222-----x-5545-x-7745-2--2----x5545x7-7-2222-----(x-5545)-x-7745-|
                 ****   ****          **** ***             ****    ****   
eb|-------------------|
Gb|-------------------|
Db|-------------------|
Ab|--2--3-2--------5--|
Db|-2--2----x5545x7-7-|
             **** ***
Pre-Chorus: Elec. Gtr. 2 (words placed where you play notes)
1. Itís just an-oth-er war             Just another...
2. Itís just an-oth-er war             Just another...
eb|--------7-----8------7------7--------------------|
Bb|-------------------------------------------------|
Gb|-----9----9--------------9-----------------------|
Db|-------------------------------------------------|
Ab|-------------------------------------------------|
Db|-------------------------------------------------|

Pre-Chorus: Elec. Gtr. 2 (words placed where you play notes)
1. Just a step from the edge              Just an-oth-er day...
2. Itís just an-oth-er kill           The count-down begins...
eb|----------7---8------7------7----------7-----------------|
Bb|---------------------------------------------------------|
Gb|-----9------9-------------9------9-----------------------|
Db|---------------------------------------------------------|
Ab|---------------------------------------------------------|
Db|---------------------------------------------------------|

Pre-Chorus: Elec. Gtr. 3
eb|-----------------------------------------------------------------|
Bb|-----------------------------------------------------------------|
Gb|-2222-225-55-5-5-------------------2222-225-55-5-5---------------|
Db|-2222-225-55-5-5-22-2-----2--------2222-225-55-5-5-22-2--------5-|
Ab|-0000-003-33-3-3-22-2-3-2-2---3-2--0000-003-33-3-3-22-2-3-2----5-|
Db|-----------------22-2-----2-2----------------------22-2-----5455-|
                                                               ****

Chorus 1: Elec. Gtr. 1
Eb|-------14-14-15-15-14-14-------17-17-15-15-14-14-|
Bb|-17-17-------------------15-15-------------------|
Gb|-------------------------------------------------| (x4)
Db|-------------------------------------------------|
Ab|-------------------------------------------------|
Db|-------------------------------------------------|

Chorus 1: Elec. Gtr. 2
eb|-----------------------------------|
Bb|-----7-7-8-8-7-7-----10-10-8-8-7-7-|
Gb|-9-9-------------7-7---------------| (x4) 
Db|-----------------------------------|
Ab|-----------------------------------|
Db|-----------------------------------| 

Chorus 1: Elec. Gtr. 3
Eb|-----------------------------------|
Bb|-----------------------------------|
Gb|-----------------------------------|     
Db|-2222-225-550-2222-22-10-101012-12-| (x2)
Ab|-2222-225-550-2222-22-10-101012-12-|   
Db|-2222-225-550-2222-22-10-101012-12-|      





Chorus 2: Elec. Gtr. 1
Eb|-------14-14-15-15-14-14-------17-17-15-15-14-14-|
Bb|-17-17-------------------15-15-------------------|
Gb|-------------------------------------------------| (x8)
Db|-------------------------------------------------|
Ab|-------------------------------------------------|
Db|-------------------------------------------------|

Chorus 2: Elec. Gtr. 2
eb|-----------------------------------|
Bb|-----7-7-8-8-7-7-----10-10-8-8-7-7-|
Gb|-9-9-------------7-7---------------| (x8) 
Db|-----------------------------------|
Ab|-----------------------------------|
Db|-----------------------------------| 

Chorus 2: Elec. Gtr. 3 (3rd time more strummy)
Eb|-----------------------------------|      --------------------|
Bb|-----------------------------------|      --------------------|
Gb|-----------------------------------|      --------------------|
Db|-2222-225-550-2222-22-10-101012-12-| (x3) -2222-2222-22222222-|       
Ab|-2222-225-550-2222-22-10-101012-12-|      -2222-2222-22222222-|       
Db|-2222-225-550-2222-22-10-101012-12-|      -2222-2222-22222222-|       
                                              **** **** ****
Bridge: Elec. Gtr. 1 (begins on the palm mutes of gtr 3 [below])
eb|-------14-14-15-15-14-14-------17-17-15-15-14-14-|
Bb|-17-17-------------------15-15-------------------|
Gb|-------------------------------------------------|
Db|-------------------------------------------------|
Ab|-------------------------------------------------|
Db|-------------------------------------------------|

Bridge: Elec. Gtr. 2 (begins on the palm mutes of gtr 3 [below])
eb|-----------------------------------|
Bb|-----7-7-8-8-7-7-----10-10-8-8-7-7-|
Gb|-9-9-------------7-7---------------|
Db|-----------------------------------|
Ab|-----------------------------------|
Db|-----------------------------------|

Bridge: Elec. Gtr. 3 (the ending 2 lead straight into Chorus)
eb|---------------------------------|       ------------------------------|
Bb|---------------------------------|       ------------------------------|
Gb|-2-2-22x5-55-5-5-----------------| (x3)  -55555555-7777----------------|
Db|-2-2-22x5-55-5-5-2-2-22x0-00-0-0-|       -55555555-7777-9999-2222-2222-|
Ab|-0-0-00x3-33-3-3-2-2-22x0-00-0-0-|       -33333333-5555-6666-2222-2222-|
Db|-----------------2-2-22x0-00-0-0-|       --------------------2222-2222-|
                                                                **** ****
Chorus 3: Elec. Gtr. 3
eb|---------------------------------|
Bb|---------------------------------|
Gb|---------------------------------|
Db|-2222-222-5-2222-22-10-101012-12-|
Ab|-2222-222-5-2222-22-10-101012-12-|
Db|-2222-222-5-2222-22-10-101012-12-|


Chorus 3: Elec. Gtr. 1
eb|-------14-14-15-15-14-14----|
Bb|-17-17-------------------15-|
Gb|----------------------------|
Db|----------------------------|
Ab|----------------------------|
Db|----------------------------|

Chorus 3: Elec. Gtr. 2
eb|-------------------|
Bb|-----7-7-8-8-7-7---|
Gb|-9-9-------------7-|
Db|-------------------|
Ab|-------------------|
Db|-------------------|

Then once Normal Chorus resumes


Chorus 3: Elec. Gtr. 1
Eb|-------14-14-15-15-14-14-------17-17-15-15-14-14-14\-|
Bb|-17-17-------------------15-15-----------------------|
Gb|-----------------------------------------------------| (x7)
Db|-----------------------------------------------------|
Ab|-----------------------------------------------------|
Db|-----------------------------------------------------|

Chorus 3: Elec. Gtr. 2
eb|--------------------------------------|
Bb|-----7-7-8-8-7-7-----10-10-8-8-7-7-7\-|
Gb|-9-9-------------7-7------------------| (x7) 
Db|--------------------------------------|
Ab|--------------------------------------|
Db|--------------------------------------| 

Chorus 3: Elec. Gtr. 3
Eb|-----------------------------------|
Bb|-----------------------------------|
Gb|-----------------------------------|     
Db|-2222-225-550-2222-22-10-101012-12-| (x2)
Ab|-2222-225-550-2222-22-10-101012-12-|   
Db|-2222-225-550-2222-22-10-101012-12-|      

Eb|-------------------------------------|
Bb|-------------------------------------|
Gb|-------------------------------------|     
Db|-2222-225-550-222-222-1010101010-12\-|
Ab|-2222-225-550-222-222-1010101010-12\-|   
Db|-2222-225-550-222-222-1010101010-12\-|      
     

eb|-----------------------------------------|
Bb|-----------------------------------------|
Gb|-----------------------------------------|
Db|-22-22-22-55-00-xx-2-5\2-5\2-5\2-22-2-22-|
Ab|-22-22-22-55-00-xx-2-5\2-5\2-5\2-22-2-22-|
Db|-22-22-22-55-00-xx-2-5\2-5\2-5\2-22-2-22-|


************************************

| \   slide down
| x   Mute note

************************************
Tap to rate this tab
# A B C D E F G H I J K L M N O P Q R S T U V W X Y Z