Song name
# A B C D E F G H I J K L M N O P Q R S T U V W X Y Z

Skillet - Good To Be Alive tab

Skillet
Good To Be Alive
Rise
Tabbed by Jon (GuitarDude0921)
Drop C Tuning
Rhythm Guitar - Korey Cooper
Lead Guitar - Seth Morrison

Intro/Verse - Rhythm Guitar
D|-------------------|
A|-------------------|
F|-------------------|about 24x
C|-------------------|
G|--5-555-555-5-5-5--|
C|-------------------|
PM*******************|

Pre-Chorus - Rhythm Guitar
D|------------------------------------------|
A|------------------------------------------|
F|--7-----------7-----------7---------------|
C|--7--7--5--7--7--7--5--7--7--7--5--55555--|
G|--5--7--5--7--5--7--5--7--5--7--5--55555--|
C|-----7--5--7-----7--5--7-----7--5--55555--|

Chorus - Rhythm Guitar
D|--------------------------|  |------------------|
A|--------------------------|  |------------------|
F|--------------7777--------|3x|------------------|
C|--9999--5555--7777--7777--|  |--9999--5555--7~--|
G|--9999--5555--5555--7777--|  |--9999--5555--7~--|
C|--9999--5555--------7777--|  |--9999--5555--7~--|

Post-Chorus/Verse - Rhythm Guitar
D|-------------------|
A|-------------------|
F|-------------------|about 20x
C|-------------------|
G|--5-555-555-5-5-5--|
C|-------------------|
PM*******************|

Pre-Chorus - Rhythm Guitar
D|------------------------------------------|
A|------------------------------------------|
F|--7-----------7-----------7---------------|
C|--7--7--5--7--7--7--5--7--7--7--5--55555--|
G|--5--7--5--7--5--7--5--7--5--7--5--55555--|
C|-----7--5--7-----7--5--7-----7--5--55555--|

Chorus - Rhythm Guitar
D|--------------------------|  |------------------------|
A|--------------------------|  |------------------------|
F|--------------7777--------|3x|------------------------|
C|--9999--5555--7777--7777--|  |--9999--5555--77777777--|
G|--9999--5555--5555--7777--|  |--9999--5555--77777777--|
C|--9999--5555--------7777--|  |--9999--5555--77777777--|

Interlude/Bridge Thingy - Rhythm Guitar
D|-----------------|
A|-----------------|
F|-----------6--7--|3x
C|--4--5--7--6--7--|
G|--4--5--7--4--5--|
C|--4--5--7--------|

Solo #1 - Lead Guitar
D|----------------------------------------------------|
A|--------------------15-15--15-14-15--17-17-15-15~/--|
F|--/12-12-11--12-11----------------------------------|
C|----------------------------------------------------|
G|----------------------------------------------------|
C|----------------------------------------------------|
 |
 | Rhythm Guitar
D|------------------------------|
A|------------------------------|
F|--99999999--1212121212121212--|
C|--99999999--1212121212121212--|
G|--77777777--1010101010101010--|
C|------------------------------|

Interlude/Bridge Thingy Again - Rhythm Guitar
D|-----------------|
A|-----------------|
F|-----------6--7--|3x
C|--4--5--7--6--7--|
G|--4--5--7--4--5--|
C|--4--5--7--------|

Solo #2 - Lead Guitar
D|------------------------------------17-17-14-------|
A|-------------------15-15--15-14-15-----------17~/--|
F|--/12-12-11--12-11---------------------------------|
C|---------------------------------------------------|
G|---------------------------------------------------|
C|---------------------------------------------------|
 |
 | Rhythm Guitar
D|------------------------------|
A|------------------------------|
F|--99999999--1212121212121212--|
C|--99999999--1212121212121212--|
G|--77777777--1010101010101010--|
C|------------------------------|

Pre-Chorus - Rhythm Guitar
D|------------------------------|
A|------------------------------|
F|--7-----------7---------------|
C|--7--7--5--7--7--7--5--55555--|
G|--5--7--5--7--5--7--5--55555--|
C|-----7--5--7-----7--5--55555--|

Chorus - Rhythm Guitar
D|--------------|  |------------|
A|--------------|  |------------|
F|--------7-----|3x|------------|
C|--9--5--7--7--|  |--9--5--7~--|
G|--9--5--5--7--|  |--9--5--7~--|
C|--9--5-----7--|  |--9--5--7~--|

Ending Thingy - Rhythm Guitar
D|-----------------|  |------------|
A|-----------------|  |------------|
F|-----------6--7--|3x|------------|
C|--4--5--7--6--7--|  |--4--5--7~--|
G|--4--5--7--4--5--|  |--4--5--7~--|
C|--4--5--7--------|  |--4--5--7~--|

Thanks
Please rate
Peace out
           -Jon
Tap to rate this tab
# A B C D E F G H I J K L M N O P Q R S T U V W X Y Z