Song name
# A B C D E F G H I J K L M N O P Q R S T U V W X Y Z

Skillet - Falling Inside The Black drum

                           Falling Inside the Black                             


                                                                         Skillet
Drums


     W                   W                   W                 
C||-------------------|-------------------|-------------------|
C||-------------------|-------------------|-------------------|
C||-------------------|-------------------|-------------------|
C||-------------------|-------------------|-------------------|
C||-------------------|-------------------|-------------------|
C||-------------------|-------------------|-------------------|


  W                    E  S  S  E  E   E  S  S  E  E   
-------------------|--57-------57-----57-------57-----|
-------------------|-----------38--------------38-----|
-------------------|--36----36--------36----36--------|
-------------------|----------------------------------|
-------------------|----------------------------------|
-------------------|----------------------------------|


   E  S  S  E  E   E  S  S  E  E      E  S  S  E  E   E  S  S  E  E   
--57-------57-----57-------57-----|--57-------57-----57-------57-----|
-----------38--------------38-----|-----------38--------------38-----|
--36----36--------------36--------|--36----36--------36----36--------|
----------------------------------|----------------------------------|
----------------------------------|----------------------------------|
----------------------------------|----------------------------------|


   E  S  S  E  E   E  S  S  E  E      Q    H.              W                 
--57-------57-----57-------57-----|--57-----------------|-------------------|
-----------38--------------38-----|---------------------|-------------------|
--36----36--------------36--------|---------------------|-------------------|
----------------------------------|---------------------|-------------------|
----------------------------------|---------------------|-------------------|
----------------------------------|---------------------|-------------------|


  W                   Q    Q     Q     E   E   
-------------------|--------------------------|
-------------------|------------38----38--38--|
-------------------|--------------------------|
-------------------|--------------------------|
-------------------|--------------------------|
-------------------|--------------------------|


   E   S  S  E   E   E   E   E   E      E   S  S  E   E   E   E   E   E   
--57--44----44--44--44--44--44--44--|--44--44----44--44--44--44--44--44--|
------------38--------------38------|------------38--------------38------|
--36-----36-----36------36----------|--36-----36-----36------36------36--|
------------------------------------|------------------------------------|
------------------------------------|------------------------------------|
------------------------------------|------------------------------------|


   E   S  S  E   E   E   E   E   E      E   S  S  E   E   S  S  E   S  S  S  S  
--44--44----44--44--44--44--44--44--|--44--44----44--44--44----44--44----44----|
------------38--------------38------|------------38---------38-----38----38----|
--36-----36-----36------36----------|--36-----36-----36--------36-----36----36-|
------------------------------------|------------------------------------------|
------------------------------------|------------------------------------------|
------------------------------------|------------------------------------------|


   E   S  S  E   E   S  S  E   S  S  E   
--57--46----46--46--46----46--46----46--|
------------38----------------38--------|
--36-----36-----36-----36-36-----36-36--|
----------------------------------------|
----------------------------------------|
----------------------------------------|


   E   S  S  E   E   S S  E   S S  S  S  
--46--46----46--46--46---46--46---46----|
------------38---------------38---------|
--36-----36-----------------------36-36-|
----------------------------------------|
----------------------------------------|
----------------------------------------|


   E   S  S  E   E   S  S  E   S  S  E   
--46--46----46--46--46----46--46----46--|
------------38----------------38--------|
--36-----36-----36-----36-36-----36-36--|
----------------------------------------|
----------------------------------------|
----------------------------------------|


   E   S  S  E   E   S  S  S  S  S  S  S  S  
--57--46----46--46--46----46----46----46----|
------------38------------------38----------|
--36-----36-----36-----36-36-36----36-36-36-|
--------------------------------------------|
--------------------------------------------|
--------------------------------------------|


   E   S  S  E   E   S  S  S  S  S S S S  
--46--46----46--46--46----46-------------|
------------38---------38-45----38-------|
--36-----36-----36-----------36----------|
-----------------------------------------|
-----------------------------------------|
-----------------------------------------|


   E   E   S  S  S  S  E   E   S  S  S S  
--57--55--55----55----55--55--55----55---|
----------38------------------38---------|
--36--36-----36----36-36--36-----36------|
-----------------------------------------|
-----------------------------------------|
-----------------------------------------|


   E   E   S  S  S  S  E   E   S  S  S S  
--55--55--55----55----55--55--55----55---|
----------38------------------38---------|
--36--36-----36----36-36--36-----36------|
-----------------------------------------|
-----------------------------------------|
-----------------------------------------|


   E   E   S  S  S  S  E   E   S  S  S S  
--57--55--55----55----55--55--55----55---|
----------38------------------38---------|
--36--36-----36----36-36--36-----36------|
-----------------------------------------|
-----------------------------------------|
-----------------------------------------|


   E   E   S  S  S  S  E   E   S  S  S S  
--55--55--55----55----55--55--55----55---|
----------38------------------38----38---|
--36--36-----36----36-36--36-----36------|
-----------------------------------------|
-----------------------------------------|
-----------------------------------------|


   E   E   S  S  S  S  E   E   S  S  S S  
--57--55--55----55----55--55--55----55---|
----------38------------------38---------|
--36--36-----36----36-36--36-----36------|
-----------------------------------------|
-----------------------------------------|
-----------------------------------------|


   E   E   S  S  S  S  E   E   S  S  S  S     E   E   E   E   E   E   S  S  E   
--55--55--55----55----55--55--------------|--57--55--55--55--55--55--55----55--|
----------38------------------38----38-38-|----------38--------------38--------|
--36--36-----36----36-36--36-----36-------|--36--36----------36--36-----36-----|
------------------------------------------|------------------------------------|
------------------------------------------|------------------------------------|
------------------------------------------|------------------------------------|


   E   E   E  E   E   E   S  S  E      E   E   S  S  E   H         
--57------57-----57--55--55----55--|--55--55--55----55--55--------|
----------38-------------38--------|----------38--------38--------|
--36--36---------36--36-----36-----|--36--36-----36---------------|
-----------------------------------|------------------------------|
-----------------------------------|------------------------------|
-----------------------------------|------------------------------|


   E   S  S  E   E   E   E   E   E      E   S  S  E   E   E   E   E   E   
--44--44----44--44--44--44--44--44--|--44--44----44--44--44--44--44--44--|
------------38--------------38------|------------38--------------38------|
--36-----36-----36------36----------|--36-----36-----36------36------36--|
------------------------------------|------------------------------------|
------------------------------------|------------------------------------|
------------------------------------|------------------------------------|


   E   S  S  E   E   E   E   E   E      E   S  S  E   E   Q     E   E   
--44--44----44--44--44--44--44--44--|--44--44----44--44----------------|
------------38--------------38------|------------38------38----38--38--|
--36-----36-----36------36----------|--36-----36-----36----------------|
------------------------------------|----------------------------------|
------------------------------------|----------------------------------|
------------------------------------|----------------------------------|


   E   S  S  E   E   E   E   E   E      E   S  S  E   E   E   E   E   E   
--57--44----44--44--44--44--44--44--|--44--44----44--44--44--44--44--44--|
------------38--------------38------|------------38--------------38------|
--36-----36-----36------36----------|--36-----36-----36------36------36--|
------------------------------------|------------------------------------|
------------------------------------|------------------------------------|
------------------------------------|------------------------------------|


   E   S  S  E   E   E   E   E   E      E   S  S  E   E   S  S  E   S  S  S S  
--44--44----44--44--44--44--44--44--|--44--44----44--57--44----44-------------|
------------38--------------38------|------------38---------38-----38---------|
--36-----36-----36------36----------|--36-----36-----36--------36-------------|
------------------------------------|---------------------------------45-45---|
------------------------------------|-----------------------------------------|
------------------------------------|-----------------------------------------|


   E   S  S  E   E   S  S  E   S  S  E   
--57--46----46--46--46----46--46----46--|
------------38----------------38--------|
--36-----36-----36-----36-36-----36-36--|
----------------------------------------|
----------------------------------------|
----------------------------------------|


   E   S  S  E   E   S S  E   S S  S  S  
--46--46----46--46--46---46--46---46----|
------------38---------------38---------|
--36-----36-----------------------36-36-|
----------------------------------------|
----------------------------------------|
----------------------------------------|


   E   S  S  E   E   S  S  E   S  S  E   
--46--46----46--46--46----46--46----46--|
------------38----------------38--------|
--36-----36-----36-----36-36-----36-36--|
----------------------------------------|
----------------------------------------|
----------------------------------------|


   E   S  S  E   E   S  S  S  S  S  S  S  S  
--57--46----46--46--46----46----46----46----|
------------38------------------38----------|
--36-----36-----36-----36-36-36----36-36-36-|
--------------------------------------------|
--------------------------------------------|
--------------------------------------------|


   E   S  S  E   E   S  S  S  S  S S S S  
--46--46----46--46--46----46-------------|
------------38---------38-45----38-------|
--36-----36-----36-----------36----------|
-----------------------------------------|
-----------------------------------------|
-----------------------------------------|


   E   E   S  S  S  S  E   E   S  S  S S  
--57--55--55----55----55--55--55----55---|
----------38------------------38---------|
--36--36-----36----36-36--36-----36------|
-----------------------------------------|
-----------------------------------------|
-----------------------------------------|


   E   E   S  S  S  S  E   E   S  S  S S  
--55--55--55----55----55--55--55----55---|
----------38------------------38---------|
--36--36-----36----36-36--36-----36------|
-----------------------------------------|
-----------------------------------------|
-----------------------------------------|


   E   E   S  S  S  S  E   E   S  S  S S  
--57--55--55----55----55--55--55----55---|
----------38------------------38---------|
--36--36-----36----36-36--36-----36------|
-----------------------------------------|
-----------------------------------------|
-----------------------------------------|


   E   E   S  S  S  S  E   E   S  S  S S  
--55--55--55----55----55--55--55----55---|
----------38------------------38----38---|
--36--36-----36----36-36--36-----36------|
-----------------------------------------|
-----------------------------------------|
-----------------------------------------|


   E   E   S  S  S  S  E   E   S  S  S S  
--57--55--55----55----55--55--55----55---|
----------38------------------38---------|
--36--36-----36----36-36--36-----36------|
-----------------------------------------|
-----------------------------------------|
-----------------------------------------|


   E   E   S  S  S  S  E   E   S  S  S  S     E   E   E   E   E   E   S  S  E   
--55--55--55----55----55--55--------------|--57--55--55--55--55--55--55----55--|
----------38------------------38----38-38-|----------38--------------38--------|
--36--36-----36----36-36--36-----36-------|--36--36----------36--36-----36-----|
------------------------------------------|------------------------------------|
------------------------------------------|------------------------------------|
------------------------------------------|------------------------------------|


   E   E   E  E   E   E   S  S  E      E   E   S  S  E   E   E   E  E   
--57------57-----57--55--55----55--|--55--55--55----55-----------------|
----------38-------------38--------|----------38--------38--38--38-----|
--36--36---------36--36-----36-----|--36--36-----36-----36--36--36-----|
-----------------------------------|-----------------------------------|
-----------------------------------|-----------------------------------|
-----------------------------------|-----------------------------------|


                                                            |--3--|  |--3--|  
  E  E   E   S  S E  E   E   S  S    E  E   E   S  S E  E   S  S  S  S  S  S  
----------------------------------|------------------------------------------|
--------38--38-38-------38--38-38-|--------38--38-38-------38-38-38-38-38-38-|
--------36--36-36-------36--36-36-|--------36--36-36-------36-36-36-36-36-36-|
----------------------------------|------------------------------------------|
----------------------------------|------------------------------------------|
----------------------------------|------------------------------------------|


   E   E   S  S  S S  E   E   S  S  S S  
--57--46--46----46---46--46--46----46---|
----------38-----------------38---------|
--36--36-----36------36--36-----36------|
----------------------------------------|
----------------------------------------|
----------------------------------------|


   E   E   S  S  S S  E   E   S  S  S S  
--46--46--46----46---46--46--46----46---|
----------38-----------------38---------|
--36--36-----36------36--36-----36------|
----------------------------------------|
----------------------------------------|
----------------------------------------|


   E   E   S  S  S S  E   E   S  S  S S  
--57--46--46----46---46--46--46----46---|
----------38-----------------38---------|
--36--36-----36------36--36-----36------|
----------------------------------------|
----------------------------------------|
----------------------------------------|


   E   E   S  S  S  S  S  S  S S  S  S  S S  
--57--46--46----46----46----46--------------|
----------38-------38----38------38---------|
--36--36-----36-------36----36------36------|
---------------------------------------45---|
--------------------------------------------|
--------------------------------------------|


   E   S  S  E   E   S  S  S  S  S  S  S  S  
--57--46----46--46--46----46----46----46----|
------------38------------------38----------|
--36-----36-----36-----36-36-36----36-36-36-|
--------------------------------------------|
--------------------------------------------|
--------------------------------------------|


                                |--3--|  |--3--|                       
   E   S  S  E   E  S  S  S  S  S  S  S  S  S  S     W                 
--46--46--------46-------------------------------|--57----------------|
------------38--------38-45----38-38-38-38-38-38-|--------------------|
--36-----36-----36----------36-------------------|--------------------|
-------------------------------------------------|--------------------|
-------------------------------------------------|--------------------|
-------------------------------------------------|--------------------|


  W                   W                 
-------------------|-------------------|
-------------------|-------------------|
-------------------|-------------------|
-------------------|-------------------|
-------------------|-------------------|
-------------------|-------------------|


                       |--3--|  |--3--|  |---3---|      |---3---|        
   E   S  S  E   S  S  S  S  S  S  S  S  E   E   E      E   E   E  Q     
--57--------57--------57----------------------------|-------------------|
------38-38-----38-38----38-38-38-38-38-------------|-------------------|
--36--------36--------36----------------------------|-------------------|
----------------------------------------41--41--43--|--43--45--45-------|
----------------------------------------------------|-------------------|
----------------------------------------------------|-------------------|


   E   E   S  S  S  S  E   E   S  S  S S  
--57--55--55----55----55--55--55----55---|
----------38------------------38---------|
--36--36-----36----36-36--36-----36------|
-----------------------------------------|
-----------------------------------------|
-----------------------------------------|


   E   E   S  S  S  S  E   E   S  S  S S  
--55--55--55----55----55--55--55----55---|
----------38------------------38---------|
--36--36-----36----36-36--36-----36------|
-----------------------------------------|
-----------------------------------------|
-----------------------------------------|


   E   E   S  S  S  S  E   E   S  S  S S  
--57--55--55----55----55--55--55----55---|
----------38------------------38---------|
--36--36-----36----36-36--36-----36------|
-----------------------------------------|
-----------------------------------------|
-----------------------------------------|


   E   E   S  S  S  S  E   E   S  S  S S  
--55--55--55----55----55--55--55----55---|
----------38------------------38----38---|
--36--36-----36----36-36--36-----36------|
-----------------------------------------|
-----------------------------------------|
-----------------------------------------|


   E   E   S  S  S  S  E   E   S  S  S S  
--57--55--55----55----55--55--55----55---|
----------38------------------38---------|
--36--36-----36----36-36--36-----36------|
-----------------------------------------|
-----------------------------------------|
-----------------------------------------|


   E   E   S  S  S  S  E   E   S  S  S  S     E   E   E   E   E   E   S  S  E   
--55--55--55----55----55--55--------------|--57--55--55--55--55--55--55----55--|
----------38------------------38----38-38-|----------38--------------38--------|
--36--36-----36----36-36--36-----36-------|--36--36----------36--36-----36-----|
------------------------------------------|------------------------------------|
------------------------------------------|------------------------------------|
------------------------------------------|------------------------------------|


   E   E   E  E   E   E   S  S  S  S     E   E   E   E   E   E   S  S  E   
--57------57-----57--55--55----55----|--57--55--55--55--55--55--55----55--|
----------38-------------38----38-38-|----------38--------------38--------|
--36--36---------36--36-----36-------|--36--36----------36--36-----36-----|
-------------------------------------|------------------------------------|
-------------------------------------|------------------------------------|
-------------------------------------|------------------------------------|


   E   E   E  E   E   E   S  S  S  S     E   E   E   E   E   E   S  S  E   
--57------57-----57--55--55----55----|--57--55--55--55--55--55--55----55--|
----------38-------------38----38-38-|----------38--------------38--------|
--36--36---------36--36-----36-------|--36--36----------36--36-----36-----|
-------------------------------------|------------------------------------|
-------------------------------------|------------------------------------|
-------------------------------------|------------------------------------|


                          |--3--|  |--3--|  
   E   E   E  E   E   E   S  S  S  S  S  S  
--57------57-----57--55--------------------|
----------38-------------38-38-38-38-38-38-|
--36--36---------36--36--------------------|
-------------------------------------------|
-------------------------------------------|
-------------------------------------------|


   E   E   E   E   E   E   S  S  E      E   E   E  E   E   E   S  S  E   
--57--55--55--55--55--55--55----55--|--57------57-----57--55--55----55--|
----------38--------------38--------|----------38-------------38--------|
--36--36----------36--36-----36-----|--36--36---------36--36-----36-----|
------------------------------------|-----------------------------------|
------------------------------------|-----------------------------------|
------------------------------------|-----------------------------------|


   E   E   S  S  E   H          
--55--55--55----55--55--------||
----------38--------38--------||
--36--36-----36---------------||
------------------------------||
------------------------------||
------------------------------||

Drums Legend:
---------------
38...Snare
40...Electric Snare
36...Bass Drum
35...Acoustic Bass Drum
41...Low Floor Tom
43...High Floor Tom
45...Low Tom
47...Low-Mid Tom
48...Hi-Mid Tom

42...Closed Hi Hat
44...Pedal Hi Hat
46...Open Hi Hat
51...Ride Cymbal 1
59...Ride Cymbal 2
49...Crash Cymbal 1
52...Chinese Cymbal
57...Crash Cymbal 2
55...Splash Cymbal


Duration Legend
---------------
W - whole
H - half
Q - quarter
E - 8th
S - 16th
T - 32nd
X - 64th
. - note dotted
|-n-|  - n-tuplets
Tap to rate this tab
# A B C D E F G H I J K L M N O P Q R S T U V W X Y Z