Song name
# A B C D E F G H I J K L M N O P Q R S T U V W X Y Z

Skillet - Awake And Alive tab

Db:-------------------------------------------------------------------------------------|
Ab:-------------------------------------------------------------------------------------|
  E:---------------------------10-----------------------12---------12-14-15-14-12-14----|
  B:-----------10-12-13----------13-12-13^12-------------12-13-15-----------------------|
Gb:-10-12-13----------12-13------------------13^12^13-----------------------------------|
  B:------------------------------------------------------------------------------------|

Db:--------------15-17-18-17-15----------------------15-17-18-20-18-17-----------------|
Ab:-----------15-----------------------------------15----------------------------------|
  E:-14-15-17-------------------19-15-14-14-15-17-----------------------19-15-14-------|
  B:-----------------------------------------------------------------------------------|
Gb:------------------------------------------------------------------------------------|
  B:-----------------------------------------------------------------------------------|


Db:-----------------------------------------------------------20-22-23-22--------------|
Ab:-------------------------------------------------20-22-23---------------------------|
  E:-14-15-17-14-15-17-15-17-19-17-19-20-19-20-22--------------------------------------|
  B:-----------------------------------------------------------------------------------|
Gb:------------------------------------------------------------------------------------|
  B:-----------------------------------------------------------------------------------|
Tap to rate this tab
# A B C D E F G H I J K L M N O P Q R S T U V W X Y Z