Song name
# A B C D E F G H I J K L M N O P Q R S T U V W X Y Z

Skillet - Sick Of It tab

Skillet- Sick Of It
This song is in Drop C (CGCFAD).  This is my first tab, but I watched Skillet's
guitarist Seth Morrison teach how to play it, so I know they're accurate.  There is a synth
intro with "If you're sick, if you're sick, if you're sick, if you're sick of it" being 
whispered.  Enjoy!  God Bless!


Intro
|--------------------------------------------------------------------------|
|--------------------------------------------------------------------------|
|--------------------------------------------------------------------------|
|15-15-14---0-0-10-0---0-10-0---0-8-0-5-0-3-0---0-10-0---0-10-0---0-10-8-7-|
|13-13-12---0-0-10-0---0-10-0---0-8-0-5-0-3-0---0-10-0---0-10-0---0-10-8-7-|
|-----------0-0-10-0---0-10-0---0-8-0-5-0-3-0---0-10-0---0-10-0---0-10-8-7-|

Verse
|---------------------------------------------------------------|
|---------------------------------------------------------------|
|---------------------------------------------------------------|
|---------------------------------------------------------------|
|---------------------------------------------------------------|
|0-0-10-0---0-10-0---0-8-0-5-0-3-0---0-10-0---0-10-0---0-10-8-7-|

Pre-chorus
|8-----5------------------------|
|8-----8------------------------|
|10----7----14-14-14-14-17s8----|
|10----5----12-12-12-12-15s6----|
|8-----5------------------------|
|8---7-5------------------------|

Chorus
|--------------------------------------|
|--------------------------------------|
|------------------------------5-5-5-5-|
|0-0-0-0---8-8-8-8---3-3-3-3---5-5-5-5-|
|0-0-0-0---8-8-8-8---3-3-3-3---3-3-3-3-|
|0-0-0-0---8-8-8-8---3-3-3-3-----------|

|--------------------------------------|
|--------------------------------------|
|------------------------------5-5-----|
|0-0-0-0---8-8-8-8---3-3-3-3---5-5-----|
|0-0-0-0---8-8-8-8---3-3-3-3---3-3-----|
|0-0-0-0---8-8-8-8---3-3-3-3-------5-3-|

|--------------------------------------|
|--------------------------------------|
|------------------------------5-5-5-5-|
|0-0-0-0---8-8-8-8---3-3-3-3---5-5-5-5-|
|0-0-0-0---8-8-8-8---3-3-3-3---3-3-3-3-|
|0-0-0-0---8-8-8-8---3-3-3-3-----------|

|-------------------------------|
|-------------------------------|
|-------------------------------|
|8-8-8-8-8-8-8-8---7-7-7-3-10-1-|
|8-8-8-8-8-8-8-8---7-7-7-3-10-1-|
|8-8-8-8-8-8-8-8---7-7-7-3-10-1-|

|---------------------------------------------------------------|
|---------------------------------------------------------------|
|---------------------------------------------------------------|
|0-0-10-0---0-10-0---0-8-0-5-0-3-0---0-10-0---0-10-0---0-10-8-7-|
|0-0-10-0---0-10-0---0-8-0-5-0-3-0---0-10-0---0-10-0---0-10-8-7-|
|0-0-10-0---0-10-0---0-8-0-5-0-3-0---0-10-0---0-10-0---0-10-8-7-|







Post-chorus / verse 2
|--------------------------------------|
|--------------------------------------|
|--------------------------------------|
|--------------------------------------|
|X-X-X-X---X-X-X-X---X-X-X-X---X-X-X-X-|
|0-0-0-0---0-0-0-0---0-0-0-0---0-0-0-0-|

|----------------------------------------------------------------------------------|
|----------------------------------------------------------------------------------|
|----------------------------------------------------------------------------------|
|--------------------------------5-0-3-----------------------------------------8-7-|
|X-X-X-X-X---X-X-X-X---X-X-X-X---5-0-3---X-X-X-X-X---X-X-X-X---X-X-X---X-X-X---8-7-|
|0-0-0-0-0---0-0-0-0---0-0-0-0---5-0-3---0-0-0-0-0---0-0-0-0---0-0-0---0-0-0---8-7-|

|---------------------------------------------------------------|
|---------------------------------------------------------------|
|---------------------------------------------------------------|
|0-0-10-0---0-10-0---0-8-0-5-0-3-0---0-10-0---0-10-0---0-10-8-7-|
|0-0-10-0---0-10-0---0-8-0-5-0-3-0---0-10-0---0-10-0---0-10-8-7-|
|0-0-10-0---0-10-0---0-8-0-5-0-3-0---0-10-0---0-10-0---0-10-8-7-|

Pre-chorus 2
|8-----5------------------------|
|8-----8------------------------|
|10----7----14-14-14-14-17s8----|
|10----5----12-12-12-12-15s6----|
|8-----5------------------------|
|8---7-5------------------------|

Chorus 2
|--------------------------------------|
|--------------------------------------|
|------------------------------5-5-5-5-|
|0-0-0-0---8-8-8-8---3-3-3-3---5-5-5-5-|
|0-0-0-0---8-8-8-8---3-3-3-3---3-3-3-3-|
|0-0-0-0---8-8-8-8---3-3-3-3-----------|

|--------------------------------------|
|--------------------------------------|
|------------------------------5-5-----|
|0-0-0-0---8-8-8-8---3-3-3-3---5-5-----|
|0-0-0-0---8-8-8-8---3-3-3-3---3-3-----|
|0-0-0-0---8-8-8-8---3-3-3-3-------5-3-|

|--------------------------------------|
|--------------------------------------|
|------------------------------5-5-5-5-|
|0-0-0-0---8-8-8-8---3-3-3-3---5-5-5-5-|
|0-0-0-0---8-8-8-8---3-3-3-3---3-3-3-3-|
|0-0-0-0---8-8-8-8---3-3-3-3-----------|

|-----------------------------|
|-----------------------------|
|-----------------------------|
|8-8-8-8-8-8-8-8-7-7-7-3-10-1-|
|8-8-8-8-8-8-8-8-7-7-7-3-10-1-|
|8-8-8-8-8-8-8-8-7-7-7-3-10-1-|

|---------------------------------------------------------------|
|---------------------------------------------------------------|
|---------------------------------------------------------------|
|0-0-10-0---0-10-0---0-8-0-5-0-3-0---0-10-0---0-10-0---0-10-8-7-|
|0-0-10-0---0-10-0---0-8-0-5-0-3-0---0-10-0---0-10-0---0-10-8-7-|
|0-0-10-0---0-10-0---0-8-0-5-0-3-0---0-10-0---0-10-0---0-10-8-7-|





Bridge
|-----------------------------------------------------------------------|
|-----------------------------------------------------------------------|
|-----------------------------------------------------------------------|
|0-10-0-0-5---0-10-0-0-8-7---------0-10-0-0-5-----------3-3-5-7-2-2-2-2-|
|0-10-0-0-5---0-10-0-0-8-7---X-3---0-10-0-0-5-----------3-3-5-7-2-2-2-2-|
|0-10-0-0-5---0-10-0-0-8-7---------0-10-0-0-5-3-5-7-2---3-3-5-7-2-2-2-2-|

|-----------------------------|
|-----------------------------|
|-----------------------------|
|0-0-10-0---0-10-0------------|
|0-0-10-0---0-10-0------------|
|0-0-10-0---0-10-0---0-3-10-1-|

Chorus 3
|--------------------------------------|
|--------------------------------------|
|------------------------------5-5-5-5-|
|0-0-0-0---8-8-8-8---3-3-3-3---5-5-5-5-|
|0-0-0-0---8-8-8-8---3-3-3-3---3-3-3-3-|
|0-0-0-0---8-8-8-8---3-3-3-3-----------|

|--------------------------------------|
|--------------------------------------|
|------------------------------5-5-----|
|0-0-0-0---8-8-8-8---3-3-3-3---5-5-----|
|0-0-0-0---8-8-8-8---3-3-3-3---3-3-----|
|0-0-0-0---8-8-8-8---3-3-3-3-------5-3-|

|--------------------------------------|
|--------------------------------------|
|------------------------------5-5-5-5-|
|0-0-0-0---8-8-8-8---3-3-3-3---5-5-5-5-|
|0-0-0-0---8-8-8-8---3-3-3-3---3-3-3-3-|
|0-0-0-0---8-8-8-8---3-3-3-3-----------|

|--------------------------------------|
|--------------------------------------|
|------------------------------5-5-5-5-|
|0-0-0-0---8-8-8-8---3-3-3-3---5-5-5-5-|
|0-0-0-0---8-8-8-8---3-3-3-3---3-3-3-3-|
|0-0-0-0---8-8-8-8---3-3-3-3-----------|

|--------------------------------------|
|--------------------------------------|
|------------------------------5-5-5-5-|
|0-0-0-0---8-8-8-8---3-3-3-3---5-5-5-5-|
|0-0-0-0---8-8-8-8---3-3-3-3---3-3-3-3-|
|0-0-0-0---8-8-8-8---3-3-3-3-----------|

|--------------------------------------|
|--------------------------------------|
|------------------------------5-5-----|
|0-0-0-0---8-8-8-8---3-3-3-3---5-5-----|
|0-0-0-0---8-8-8-8---3-3-3-3---3-3-----|
|0-0-0-0---8-8-8-8---3-3-3-3-------5-3-|

|------------------------------------------------------------------------|
|------------------------------------------------------------------------|
|------------------------------5-5-5-5-----------------------------------|
|0-0-0-0---8-8-8-8---3-3-3-3---5-5-5-5---8-8-8-8-8-8-8-8-7-7-7-7-7-7-7-7-|
|0-0-0-0---8-8-8-8---3-3-3-3---3-3-3-3---8-8-8-8-8-8-8-8-7-7-7-7-7-7-7-7-|
|0-0-0-0---8-8-8-8---3-3-3-3-------------8-8-8-8-8-8-8-8-7-7-7-7-7-7-7-7-|






Outro
|------------------------------------------------------|
|------------------------------------------------------|
|------------------------------------------------------|
|0-10-0-0-5---0-10-0-0-8-7---0-10-0-0-5---0-10-0-0-8-7-|
|0-10-0-0-5---0-10-0-0-8-7---0-10-0-0-5---0-10-0-0-8-7-|
|0-10-0-0-5---0-10-0-0-8-7---0-10-0-0-5---0-10-0-0-8-7-|

|---------------------------------------------|
|---------------------------------------------|
|---------------------------------------------|
|12-12-12-10-12-12-12-10-12-12-12---8-0-5-0-3-|
|12-12-12-10-12-12-12-10-12-12-12---8-0-5-0-3-|
|12-12-12-10-12-12-12-10-12-12-12---8-0-5-0-3-|

|------------------------------------------------|
|------------------------------------------------|
|------------------------------------------------|
|12-12-12-10-12-12-12-10-12-12---0-3-8-7---0-0-0-|
|12-12-12-10-12-12-12-10-12-12---0-3-8-7---0-0-0-|
|12-12-12-10-12-12-12-10-12-12---0-3-8-7---0-0-0-|

SDG
Tap to rate this tab
# A B C D E F G H I J K L M N O P Q R S T U V W X Y Z