Song name
# A B C D E F G H I J K L M N O P Q R S T U V W X Y Z

Skillet - Angels Fall Down tab

Submitted by: Brandon Taflinger

Guitar Solo pt.1: (6x)

E------------------------------------------------------------|
B------------------------------------------------------------|
G-----7-----7h9---------7-----7h9-----------9-----9s11-------|
D--0-----0---------------------------------------------------|
A---------------------0----0-------------7-----7-------------|
E------------------------------------------------------------|

Guitar Solo pt.1(cont'd)

E-------------------------|
B-------------------------|
G------12------11--12s7---|
D-------------------------|
A--10------10-------------|
E-------------------------|

Guitar Solo pt.2 (2x)

E------------------------------------------------------------|
B------------------------------------------------------------|
G-----7-----7h9--7-6--6h7p6---6------------9-----9s11-9------|
D--0-----0------------------7-----7s9------------------------|
A-------------------------------0-------7-----7--------------|
E------------------------------------------------------------|

Guitar Solo pt.2 (cont'd)

E-------------------------|
B-------------------------|
G------12------11--12s7---|
D-------------------------|
A--10------10-------------|
E-------------------------|

Guitar Solo pt.3
possibly has an effect to it

E------------------------------------------------------------|
B---7---5---7s15--14-15---10---12---3--3s15-----7---5---7----|
G------------------------------------------------------------|
D------------------------------------------------------------|
A------------------------------------------------------------|
E------------------------------------------------------------|

Guitar Solo pt.3

E---------------------21-------------------------------------|
B---7---5---7s15--14------10--12--3--3s15--------------------|
G------------------------------------------------------------|
D------------------------------------------------------------|
A------------------------------------------------------------|
E------------------------------------------------------------|
Tap to rate this tab
 
# A B C D E F G H I J K L M N O P Q R S T U V W X Y Z