Guitaretab - guitar tabs
Song name
# A B C D E F G H I J K L M N O P Q R S T U V W X Y Z

Skillet - Thirst Is Taking Over tab

k I never done one of these before, most of this is right tho...i think

     One Verse Riff
E----------------------------------------------|
B--------4-4-------3-3-1-1------4-4------3-1-1-|
G----------------------------------------------|
D----------------------------------------------|
A--3-3-3-----3-3-3--------3-3-3----3-3-3-------|
E----------------------------------------------|

     Second Verse Riff

E--------------------------|
B--------------------------|
G--------------------------|
D------5-5-------5-----4---|
A------6-6-------6-----5---|
E---6---------5-----4------|

     Chorus (Distortion)
[ Tab from: http://www.guitaretab.com/s/skillet/53076.html ]
E----------------------------------------|
B----------------------------------------|
G----------------------------------------|
D---33333333-55555555-11111111-33333333-|
A---33333333-55555555-11111111-33333333--|
E---33333333-55555555-11111111-33333333--|

     Bridge (clean)

E----------------------------------------|
B----------------------------------------|
G----------------------------------------|
D---66666666-11111111-55555555-66666666--|
A---66666666-11111111-55555555-66666666--|
E---66666666-11111111-55555555-66666666--|

     Outro

Outro
E-3-3-3-3-3-3-3-3-3-3-3-3-3-3-3-3--------|
B-4-4-4-4-4-4-4-4-3-3-3-3-4-4-4-4-------|

this is pretty much it...
Related for Thirst Is Taking Over tab