Song name
# A B C D E F G H I J K L M N O P Q R S T U V W X Y Z

Skillet - Eating Me Away tab

Guitar Actually Starts when he says
Is there Anything,
C ]-------------------------------------------------------------------------|
G ]-------------------------------------------------------------------------|
D#]-------------------------------------------------------------------------|
A#]-------------------------------------------------------------------------|
F ]-------------------------------------------------------------------------|
A#]-2X8-4X4-5X4-2-2-0-2-2-0-0-2-2-0-2-2-0-0-2-2-0-2-2-0-0-------------------|
Chorus:
C ]-------------------------------------------------------------------------|
G ]-------------------------------------------------------------------------|
D#]-------------------------------------------------------------------------|
A#]-10-10-10-10-10-5-5-5-7-7-7-7-7-7-7-7-2-2-2-2-2-2-2-2-9-9-9-9-9-9-9-X2---|
F ]-10-10-10-10-10-5-5-5-7-7-7-7-7-7-7-7-2-2-2-2-2-2-2-2-9-9-9-9-9-9-9-X2---|
A#]-10-10-10-10-10-5-5-5-7-7-7-7-7-7-7-7-2-2-2-2-2-2-2-2-9-9-9-9-9-9-9-X2---|

C ]-------------------------------------------------------------------------|
G ]-------------------------------------------------------------------------|
D#]-------------------------------------------------------------------------|
A#]-10-10-10-10-10-5-5-5-7-7-7-7-7-7-7-7-10-10-10-10-10-10-10-2-2-2-2-2-2-2-|
F ]-10-10-10-10-10-5-5-5-7-7-7-7-7-7-7-7-10-10-10-10-10-10-10-2-2-2-2-2-2-2-|
A#]-10-10-10-10-10-5-5-5-7-7-7-7-7-7-7-7-10-10-10-10-10-10-10-2-2-2-2-2-2-2-|

C ]--------------------------------------------------------------------------|
G ]--------------------------------------------------------------------------|
D#]--------------------------------------------------------------------------|
A#]-7-7-7-7-7-7-7-7-10-10-10-10-10-10-10-10----------------------------------|
F ]-7-7-7-7-7-7-7-7-10-10-10-10-10-10-10-10----------------------------------|
A#]-7-7-7-7-7-7-7-7-10-10-10-10-10-10-10-10----------------------------------|Verse:
C ]--------------------------------------------------------------------------|
G ]--------------------------------------------------------------------------|
D#]--------------------------------------------------------------------------|
A#]------------------2-2-2-2-2-2-2-2-3-3-3-3-3-3-3-3-4-4-4-4-4-4-4-4---------|
F ]------------------2-2-2-2-2-2-2-2-3-3-3-3-3-3-3-3-4-4-4-4-4-4-4-4---------|
A#]-2-2-0-2-2-0-0X4--2-2-2-2-2-2-2-2-3-3-3-3-3-3-3-3-4-4-4-4-4-4-4-4-2-2-0X8-|

C ]--------------------------------------------------------------------------|
G ]--------------------------------------------------------------------------|
D#]--------------------------------------------------------------------------|
A#]-7-7-7-7-7-7-7-7-10-10-10-10-10-10-10-10-14-14-14-14-14-14-14-14-12-12-12-|
F ]-7-7-7-7-7-7-7-7-10-10-10-10-10-10-10-10-14-14-14-14-14-14-14-14-12-12-12-|
A#]-7-7-7-7-7-7-7-7-10-10-10-10-10-10-10-10-14-14-14-14-14-14-14-14-12-12-12-|

C ]-------------------|
G ]-------------------|
D#]-------------------|
A#]-12-12-12-12-12----|X2
F ]-12-12-12-12-12----|X2
A#]-12-12-12-12-12----|X2

C ]-------------------------------------------------------------------------|
G ]-------------------------------------------------------------------------|
D#]-------------------------------------------------------------------------|
A#]-10-10-10-10-10-5-5-5-7-7-7-7-7-7-7-7-2-2-2-2-2-2-2-2-9-9-9-9-9-9-9-X2---|
F ]-10-10-10-10-10-5-5-5-7-7-7-7-7-7-7-7-2-2-2-2-2-2-2-2-9-9-9-9-9-9-9-X2---|
A#]-10-10-10-10-10-5-5-5-7-7-7-7-7-7-7-7-2-2-2-2-2-2-2-2-9-9-9-9-9-9-9-X2---|

C ]--------------------------------------|
G ]--------------------------------------|
D#]--------------------------------------|
A#]-10-10-10-10-10-5-5-5-7-7-7-7-7-7-7-7-|
F ]-10-10-10-10-10-5-5-5-7-7-7-7-7-7-7-7-|
A#]-10-10-10-10-10-5-5-5-7-7-7-7-7-7-7-7-|
Solo:

C ]--------------------------------------------------------------------------|
G ]--------------------------------------------------------------------------|
D#]-16-16-16-16-16-16-16-16-12-12-12-12-12-12-12-12-17-17-17-17-17-17-17-17--|
A#]--------------------------------------------------------------------------|
F ]--------------------------------------------------------------------------|
A#]--------------------------------------------------------------------------|

C ]--------------------------------------------------------------------------|
G ]--------------------------------------------------------------------------|
D#]-19-19-19-19-19-19-19-9-(slide)-12-9-(slide)-13-11-9-11-9-13-9-13---------|(slide)
A#]--------------------------------------------------------------------------|
F ]--------------------------------------------------------------------------|
A#]--------------------------------------------------------------------------|


C ]----------------------------------------------|
G ]----------------------------------------------|
D#]-17 13-(Slide)-18-13-(slide)-17-13-(Slide)-18-|
A#]----------------------------------------------|
F ]----------------------------------------------|
A#]----------------------------------------------|

C ]--------------------------------------------------------------------------|
G ]--------------------------------------------------------------------------|
D#]--------------------------------------------------------------------------|
A#]-7-7-7-7-7-7-7-7-10-10-10-10-10-10-10-10-14-14-14-14-14-14-14-14-12-12-12-|
F ]-7-7-7-7-7-7-7-7-10-10-10-10-10-10-10-10-14-14-14-14-14-14-14-14-12-12-12-|
A#]-7-7-7-7-7-7-7-7-10-10-10-10-10-10-10-10-14-14-14-14-14-14-14-14-12-12-12-|

C ]-------------------|
G ]-------------------|
D#]-------------------|
A#]-12-12-12-12-12----|X2
F ]-12-12-12-12-12----|X2
A#]-12-12-12-12-12----|X2


Chorus:
C ]-------------------------------------------------------------------------|
G ]-------------------------------------------------------------------------|
D#]-------------------------------------------------------------------------|
A#]-10-10-10-10-10-5-5-5-7-7-7-7-7-7-7-7-2-2-2-2-2-2-2-2-9-9-9-9-9-9-9-X2---|
F ]-10-10-10-10-10-5-5-5-7-7-7-7-7-7-7-7-2-2-2-2-2-2-2-2-9-9-9-9-9-9-9-X2---|
A#]-10-10-10-10-10-5-5-5-7-7-7-7-7-7-7-7-2-2-2-2-2-2-2-2-9-9-9-9-9-9-9-X2---|

C ]-------------------------------------------------------------------------|
G ]-------------------------------------------------------------------------|
D#]-------------------------------------------------------------------------|
A#]-10-10-10-10-10-5-5-5-7-7-7-7-7-7-7-7-10-10-10-10-10-10-10-2-2-2-2-2-2-2-|
F ]-10-10-10-10-10-5-5-5-7-7-7-7-7-7-7-7-10-10-10-10-10-10-10-2-2-2-2-2-2-2-|
A#]-10-10-10-10-10-5-5-5-7-7-7-7-7-7-7-7-10-10-10-10-10-10-10-2-2-2-2-2-2-2-|

C ]-------------------------------------------------------------------------|
G ]-------------------------------------------------------------------------|
D#]-------------------------------------------------------------------------|
A#]-7-7-7-7-7-7-7-7-10-10-10-10-10-10-10-10-2-2-2-2-2-2-2-------------------|
F ]-7-7-7-7-7-7-7-7-10-10-10-10-10-10-10-10-2-2-2-2-2-2-2-------------------|
A#]-7-7-7-7-7-7-7-7-10-10-10-10-10-10-10-10-2-2-2-2-2-2-2-------------------|


C ]-----------------------------------------]
G ]-----------------------------------------]
D#]-----------------------------------------]
A#]-7-7-7-7-7-7-7-7-10-10-10-10-10-10-10-10-]
F ]-7-7-7-7-7-7-7-7-10-10-10-10-10-10-10-10-]
A#]-7-7-7-7-7-7-7-7-10-10-10-10-10-10-10-10-]

(Slide) means to slide youre finger to the next number.
The timing might be a little off just listen to the song for timing.
Tap to rate this tab
 
# A B C D E F G H I J K L M N O P Q R S T U V W X Y Z