Song name
# A B C D E F G H I J K L M N O P Q R S T U V W X Y Z

Skillet - Those Nights tab

Help us improve GuitareTab! Take a short survey!
 
 Those Nights - Skillet   tabbed by Andrew Hartman

Intro:
Guitar 1:
e|---------------------------------------|
B|---------------------------------------|
G|-5-5-------------------5-5-------------|
D|-5-5--5-5--2-2-3-3-3-3-5-5--5-5--2-2-3-|
A|-3-3--5-5--2-2-3-3-3-3-3-3--5-5--2-2-3-|
E|------3-3------1-1-1-1------3-3------1-|

Guitar 2:
e|---------30--------------------30------|
B|----53-------0-1-1-1-1----53-------0-1-|
G|---------------------------------------|
D|---------------------------------------|
A|---------------------------------------|
E|---------------------------------------|

Verse 1: The first part is piano: "I remember when we use to laugh"...
"...from trying to solve all the problems we're goin through..."
w/palm muting
e|------------------------------------------------------------------|
B|------------------------------------------------------------------|
G|-----------------555555--------------------------555555-----------|
D|-7777773333333333555555555555555577777733333333335555555555555555-|
A|-7777773333333333333333555555555577777733333333333333335555555555-|
E|-5555551111111111------33333333335555551111111111------3333333333-|
"Together we faced it all."
e|---------------------------|
B|---------------------------|
G|---------------------------|
D|-7777777777777777333333333-|
A|-7777777777777777333333333-|
E|-5555555555555555111111111-|

Pause:"Remember when we..."

Chorus:"Stated up late and we'd talk all night..."
e|-----------------------------------------------|
B|-----------------------------------------------|
G|-3--3-3----------------------------------------|(x2)
D|-3--3-3-3-3--3-3-3--3-3--7--7-7-2-2-3-3-3--3-3-|
A|-5--5-5-3-3--3-3-3--3-3--7--7-7-2-2-3-3-3--3-3-|
E|--------1-1--1-1-1--1-1--5--5-5-----1-1-1--1-1-|

repeat intro (x1)

verse 2: Same as verse 1 w/the piano and everything.

Bridge:
play intro (x3) w/:
"Those nights belong to us.
There's nothing wrong w/us.
Those nights belong to us."

Then repeat intro one more time.

Piano:
"I remember when we use to laugh.
And now i wish those nights would last."

Solo(yay):
Guitar 1:
e|---------------------------------|
B|---------------------------------|
G|-5-5-xxxx------------------------|
D|-5-5-xxxx-5-5-pause-3-3-xxxx-3-3-|
A|-3-3-xxxx-5-5-------3-3-xxxx-3-3-|
E|----------5-5-------1-1-xxxx-1-1-|

Guitar 2:
e|----------------------------------------|
B|----------------------------------------|
G|-------------15\3---------------15/16\3-|
D|-------------15\3---------------15/16\3-|
A|-------------15\3---------------15/16\3-|
E|----------------------------------------|

And then...
Guitar 1:
e|---------------------------------0-|
B|-----------------------------3333x-|
G|-555544445555000022224444555500005-|
D|-----------------------------------|
A|-----------------------------------|
E|-----------------------------------|

Guitar 2:
e|------------------------------|
B|------------------------------|
G|-7--7-7-----------------------|
D|-7--7-7-2-2--3333222233335555-|
A|-5--5-5-2-2--3333222233335555-|
E|-------------1111----11113333-|

Chorus (x2)

There's some more lyrics after the (x2) chorus but there's no guitar.
And that's it! Hope you like it. Comments and questions are encouraged. Have fun! -Andrew
Related for Those Nights tab