Song name
# A B C D E F G H I J K L M N O P Q R S T U V W X Y Z

Skillet - Falling Inside The Black tab

FALLING INSIDE THE BLACK - SKILLET
DROP-D
G SCALE: G-A-B-C-D-E-F#


  [GUITAR 1]
E|-0-8-7-0-2-3-0-8-7-0-10-8-----0-8-7-------0-2-3-------0-8-7-------3-2-0-|
B|------------------------------------------------------------------------|
G|------------------------------------------------------------------------|
D|------------------------------------------------------------------------|
A|------------------------------------------------------------------------|
D|------------------------------------------------------------------------|
 |                                                                        |
 | [Guitar 2]                                                             |
E|------------------------------------------------------------------------|
B|------------------------------------------------------------------------|
G|------------------------------------------------------------------------|
D|----------------------------10-10-------10-10-------10-10-------10------|
A|----------------------------10-10-------10-10-------10-10-------10------|
D|----------------------------10-10-------10-10-------10-10-------10------|
 |                                .           .           .        .      |
E|------------------------------------------------------------------------|
B|------------------------------------------------------------------------|
G|------------------------------------------------------------------------|
D|---------------------------------3p2h3p2-----3p2h3p2-----3p2h3p2-----2-2|
A|---------------------------------3p2h3p2-----3p2h3p2-----3p2h3p2-----2-2|
D|---------------------------------3p2h3p2-----3p2h3p2-----3p2h3p2-----2-2|

[GUITAR 1]
E|---------------------------------------------------------------|
B|---------------------------------------------------------------|
G|---------------------------------------------------------------|
D|--3-2-3-2--2-2-3--2-2-3--2-3-3-2--2-2-3--2-2-3--2-2-3--2-2-2-3-|
A|--3-2-3-2--2-2-3--2-2-3--2-3-3-2--2-2-3--2-2-3--2-2-3--2-2-2-3-|
D|--3-2-3-2--2-2-3--2-2-3--2-3-3-2--2-2-3--2-2-3--2-2-3--2-2-2-3-|
 |                         . . . .                       . . . . |
 |                                                               |
 |[GUITAR 2]                                                     |
E|-0--------0------0---------------0------0------0---------------|
B|---------------------------------------------------------------|
G|---------------------------------------------------------------|
D|---------------------------------------------------------------|
A|---------------------------------------------------------------|
D|---------------------------------------------------------------|

(now I don’t want to be so cold)
E|----------|
B|----------|
G|----------|
D|-2--2-2-3-|
A|-2--2-2-3-|
D|-2--2-2-3-|
   .  . . .

(your touch used to be so kind…)
E|-0-8-7-0-2-3-0-8-7-0-10-8-0-8-7-0-2-3-0-8-7-3-2-0-|
B|--------------------------------------------------|
G|--------------------------------------------------|
D|--------------------------------------------------|
A|--------------------------------------------------|
D|--------------------------------------------------|

(don’t leave me alone…)
E|-------------------------------------------------------------------------|
B|-------------------------------------------------------------------------|
G|-11-11-11-11-11-11-11-13-13----13-13-13-13-11-11-11-11-11-11-11-10-10-10-|
D|-11-11-11-11-11-11-11-13-13----13-13-13-13-11-11-11-11-11-11-11-10-10-10-|
A|--9--9--9--9--9--9--9-11-11----11-11-11-11--9--9--9--9--9--9--9--8--8--8-|
D|-------------------------------------------------------------------------|

E ----------------------------|
B ----------------------------|
G -11/11/11-11/11/11-10-10-10-|
D -11/11/11-11/11/11-10-10-10-|
A --9/-9/-9--9/-9/-9--8--8--8-|
D ----------------------------|

[CHORUS]
E|-------------------------------------------------------------|
B|-------------------------------------------------------------|
G|-11-11-11-11-11-11-10-10-10-10-10-10-8-8-8-8-8-8-6-6-6-6-6-6-|
D|-11-11-11-11-11-11-10-10-10-10-10-10-8-8-8-8-8-8-6-6-6-6-6-6-|3x
A|--9--9--9--9--9--9--8--8--8--8--8--8-8-8-8-8-8-8-6-6-6-6-6-6-|
D|-------------------------------------------------------------|

E|--------------------||--------------------|
B|--------------------||--------------------|
G|-11----10-----------||-11-11-11-11--11-11-|
D|-11----10----8----6-||-11-11-11-11--11-11-|
A|-9------8----8----6-||--9--9--9--9---9--9-|
D|-------------8----6-||--------------------|

[VERSE 2]
E|---------------------|
B|-18------------14----|
G|---------------------|
D|---------------------|
A|---------------------|
D|---------------------|
   ....................

E|-------------------------------16-14---||---------------------|
B|----19/18-------------19/18------------||----19/18------------|
G|-15-------15-17/18-15-------15---------||-15-------15-17/18---|
D|---------------------------------------||---------------------|
A|---------------------------------------||---------------------|
D|---------------------------------------||---------------------|

E|----------|
B|----------|
G|----------|
D|-2--2-2-3-|
A|-2--2-2-3-|
D|-2--2-2-3-|
   .  . . .

E|-------------------------------------------------------------------------|
B|-------------------------------------------------------------------------|
G|-11-11-11-11-11-11-11-13-13----13-13-13-13-11-11-11-11-11-11-11-10-10-10-|
D|-11-11-11-11-11-11-11-13-13----13-13-13-13-11-11-11-11-11-11-11-10-10-10-|
A|--9--9--9--9--9--9--9-11-11----11-11-11-11--9--9--9--9--9--9--9--8--8--8-|
D|-------------------------------------------------------------------------|

E ----------------------------|
B ----------------------------|
G -11-11-11-11-11-11-10-10-10-|
D -11-11-11-11-11-11-10-10-10-|
A --9--9--9--9--9--9--8--8--8-|
D ----------------------------|

[CHORUS]
E|-------------------------------------------------------------|
B|-------------------------------------------------------------|
G|-11-11-11-11-11-11-10-10-10-10-10-10-8-8-8-8-8-8-6-6-6-6-6-6-|
D|-11-11-11-11-11-11-10-10-10-10-10-10-8-8-8-8-8-8-6-6-6-6-6-6-|3x
A|--9--9--9--9--9--9--8--8--8--8--8--8-8-8-8-8-8-8-6-6-6-6-6-6-|
D|-------------------------------------------------------------|

E|--------------------||--------------------|
B|--------------------||--------------------|
G|-11----10-----------||-11-11-11-11--11-11-|
D|-11----10----8----6-||-11-11-11-11--11-11-|
A|-9------8----8----6-||--9--9--9--9---9--9-|
D|-------------8----6-||--------------------|

E|---------------------------------------|
B|---------------------------------------|
G|---------------------------------------|
D|-8-8h9-----8-8h9-----8-8h9----8-8h9----|
A|-8-8h9-----8-8h9-----8-8h9----8-8h9----|
D|-8-8h9-----8-8h9-----8-8h9----8-8h9----|

BRIDGE [GUITAR 1]
E|------------------------------------------------------------------------|
B|-------14/14/13/13/14/14-------14/14/13/13/14/14--11-----13-----14------|
G|-11/11-------------------10/10----------------------10/10--10/10--10/10-|
D|------------------------------------------------------------------------|
A|------------------------------------------------------------------------|
D|------------------------------------------------------------------------|

E -11-----14-13--|16-14-13h14p13-----------21~~20~~23~~21~~----17-17-------|
B ---------------|---------------14h16/13~~----------------18~~------19/18-|
G ---10/10--7--7-|---------------------------------------------------------|
D ---------------|---------------------------------------------------------|
A ---------------|---------------------------------------------------------|
D ---------------|---------------------------------------------------------|

E -------------||-20-21-23-26-25~~-|
B -19p18/16h18-||------------------|
G -------------||------------------|
D -------------||------------------|
A -------------||------------------|
D -------------||------------------|

BRIDGE [GUITAR 2]
E|----------------------------------------------------------------------|
B|----------------------------------------------------------------------|
G|-11---10-----------11---10-----------10-10-10-11-11-11-11-11-11--11~~-|
D|-11---10---8---6---11---10---8---6---10-10-10-11-11-11-11-11-11--11~~-|
A|--9----8---8---6----9----8---8---6----8--8--8--9--9--9--9--9--9---9~~-|
D|-----------8---6-------------8---6------------------------------------|

E|-----------------------------------------------------------|
B|-----------------------------------------------------------|
G|--11/10--11/10---------------------------------------------|
D|-8-----10-----11h13/10/13/11/10/13/11/10/11/10/6-(huh-huh)-|
A|-----------------------------------------------------------|
D|-----------------------------------------------------------|

[CHORUS]
E|-------------------------------------------------------------|
B|-------------------------------------------------------------|
G|-11-11-11-11-11-11-10-10-10-10-10-10-8-8-8-8-8-8-6-6-6-6-6-6-|
D|-11-11-11-11-11-11-10-10-10-10-10-10-8-8-8-8-8-8-6-6-6-6-6-6-|3x
A|--9--9--9--9--9--9--8--8--8--8--8--8-8-8-8-8-8-8-6-6-6-6-6-6-|
D|-------------------------------------------------------------|

E|--------------------|
B|--------------------|
G|-11----10-----------|
D|-11----10----8----6-|3x
A|--9-----8----8----6-|
D|-------------8----6-|

[GUITAR 2]
E|--------------------||--------------------|
B|--------------------||--------------------|
G|-11----10-----------||-11/11/11/11-x11-11-|
D|-11----10----8----6-||-11/11/11/11-x11-11-|
A|-9------8----8----6-||--9/-9/-9/-9-x-9--9-|
D|-------------8----6-||--------------------|

[GUITAR 1]
E|---------------------------------------|
B|-----------12---13---15---17---18---17-|
G|------------x----x----x----x----x----x-|
D|------------9---10---12---14---15---14-|
A|---------------------------------------|
D|---------------------------------------|
Tap to rate this tab
# A B C D E F G H I J K L M N O P Q R S T U V W X Y Z