Song name
# A B C D E F G H I J K L M N O P Q R S T U V W X Y Z

Skillet - Whispers In The Dark tab

This tab is dedicated to Krystyna!, 
who has won over my heart and to Skillet, 
who have won over my Ears and MP3 Player!

I couln't really find any tabs for this song that were any good let alone
standard tuning. So i did my research and transposed all the notes so that
they are EXACTLY the SAME, but of course STANDARD TUNING! YAY!

Have fun with this kick ass song!  





=(INTRO)= 
-PIANO TO GUITAR (if you feel like it and you have a footpedal =P)
-VOICE ENTER SECOND TIME

E||----------------------|----------------------|----------------------|----------------------|
B||----------------------|----------------------|----------------------|----------------------| 
G||------------6----4----|--7----6--4-----------|------------6----4----|--7----6--7--7--------|
D||--5----4--------------|-------------4--------|--5----4--------------|----------------------| (X2)
A||----------------------|----------------------|----------------------|----------------------|
E||--3-------------------|----------------------|--3-------------------|----------------------| 


=(VERSE 1)=
-ENTER GUITAR 
-DISTORTED
-MATCH SONG FOR TIMING ON THIS BIT, I HOPE I HELPED AS MUCH AS POSSIBLE
                                   PM PM PM                         PM PM   PM PM PM PM         
||--------------------|---------------------|---------------------|------------------------||
||--------------------|---------------------|---------------------|------------------------||
||--------------------|---------------------|---------------------|------------------------||
||--------------------|---------------------|---x-----------------|------------------------||
||---2------2-----2---|-2-----2-----2--2--2-|---5--2----2-----2---|--2--2---2--2--2--2-----|| (X2)
||---2------2-----2---|-2-----2-----2--2--2-|------2----2-----2---|--2--2---2--2--2--2-----||

   PM PM                    PM PM PM PM                       -...EVERYTHING GOES QUIET...-          
||------------------|-------------------------||    ||-----------------|-------------------------||
||------------------|-------------------------||    ||-----------------|-------------------------||
||------------------|-------------------------||    ||-----------------|-------------------------||
||------------------|-------------------------||(X7)||-----------------|-------------------------||
||--2--2--2----2----|--2-----4--4--4--4-------||    ||--2--2--2----2---|--2-----4--4--4--4-------||
||--2--2--2----2----|--2-----4--4--4--4-------||    ||--2--2--2----2---|--2-----4--4--4--4-------||


=(CHORUS)=
-THE FIRST X NOTE OF EACH BAR SHOULD BE IN HARMONIC WITH HIS VOICE (PRACTICE AND MATCH THE SONG)                             

||------------------------|--------------------------|
||------------------------|--------------------------|
||------------------------|---x----------------------|
||--x---------x-x---------|---5---------x-x----------|
||--2----2----x-x-2-------|--------5----x-x-5--------|
||-------2----x-x-2-------|--------3----x-x-3--------|

  PM PM PM PM PM PM PM PM PM PM PM PM PM PM PM PM    
|-------------------------|--------------------------|
|-------------------------|--------------------------|
|-------------------------|--------------------------|
|--2--2--2--2--2--2--2--2-|-2--2--2--2--2--2--2--2---|
|--2--2--2--2--2--2--2--2-|-2--2--2--2--2--2--2--2---|
|--0--0--0--0--0--0--0--0-|-0--0--0--0--0--0--0--0---|

  PM PM PM PM PM PM PM PM PM PM PM PM PM PM PM PM
|-------------------------|-------------------------||
|-------------------------|-------------------------||
|-------------------------|-------------------------||
|--0--0--0--0--0--0--0--0-|-------------------------|| 
|--0--0--0--0--0--0--0--0-|-0--0--0--0--0--0--0--0--||
|-------------------------|-9--9--9--9--9--9--9--9--||

||------------------------|--------------------------|
||------------------------|--------------------------|
||------------------------|---x----------------------|
||--x---------x-x---------|---5---------x-x----------|
||--2----2----x-x-2-------|--------5----x-x-5--------|
||-------2----x-x-2-------|--------3----x-x-3--------|

  PM PM PM PM PM PM PM PM PM PM PM PM PM PM PM PM    
|-------------------------|--------------------------|
|-------------------------|--------------------------|
|-------------------------|--------------------------|
|--2--2--2--2--2--2--2--2-|-2--2--2--2--2--2--2--2---|
|--2--2--2--2--2--2--2--2-|-2--2--2--2--2--2--2--2---|
|--0--0--0--0--0--0--0--0-|-0--0--0--0--0--0--0--0---|

  PM PM PM PM PM PM PM PM PM PM PM PM PM PM PM PM
|-------------------------|-------------------------||
|-------------------------|-------------------------||
|-------------------------|-------------------------||
|--0--0--0--0--0--0--0--0-|-------------------------|| 
|--0--0--0--0--0--0--0--0-|-0-----------------------||
|-------------------------|-9-----------------------||


=(VERSE 2)=
                                   PM PM PM                         PM PM   PM PM PM PM         
||--------------------|---------------------|---------------------|------------------------||
||--------------------|---------------------|---------------------|------------------------||
||--------------------|---------------------|---------------------|------------------------||
||--------------------|---------------------|---x-----------------|------------------------||
||---2------2-----2---|-2-----2-----2--2--2-|---5--2----2-----2---|--2--2---2--2--2--2-----|| (X2)
||---2------2-----2---|-2-----2-----2--2--2-|------2----2-----2---|--2--2---2--2--2--2-----||

    PM PM                   PM PM PM PM                    -...EVERYTHING GOES QUIET...AGAIN-          
||------------------|-------------------------||    ||-----------------|-------------------------||
||------------------|-------------------------||    ||-----------------|-------------------------||
||------------------|-------------------------||    ||-----------------|-------------------------||
||------------------|-------------------------||(X7)||-----------------|-------------------------||
||--2--2--2----2----|--2-----4--4--4--4-------||    ||--2--2--2----2---|--2-----4--4--4--4-------||
||--2--2--2----2----|--2-----4--4--4--4-------||    ||--2--2--2----2---|--2-----4--4--4--4-------||


=(CHORUS 2)=                             

||------------------------|--------------------------|
||------------------------|--------------------------|
||------------------------|---x----------------------|
||--x---------x-x---------|---5---------x-x----------|
||--2----2----x-x-2-------|--------5----x-x-5--------|
||-------2----x-x-2-------|--------3----x-x-3--------|

  PM PM PM PM PM PM PM PM PM PM PM PM PM PM PM PM    
|-------------------------|--------------------------|
|-------------------------|--------------------------|
|-------------------------|--------------------------|
|--2--2--2--2--2--2--2--2-|-2--2--2--2--2--2--2--2---|
|--2--2--2--2--2--2--2--2-|-2--2--2--2--2--2--2--2---|
|--0--0--0--0--0--0--0--0-|-0--0--0--0--0--0--0--0---|

  PM PM PM PM PM PM PM PM PM PM PM PM PM PM PM PM
|-------------------------|-------------------------||
|-------------------------|-------------------------||
|-------------------------|-------------------------||
|--0--0--0--0--0--0--0--0-|-------------------------|| 
|--0--0--0--0--0--0--0--0-|-0--0--0--0--0--0--0--0--||
|-------------------------|-9--9--9--9--9--9--9--9--||

||------------------------|--------------------------|
||------------------------|--------------------------|
||------------------------|---x----------------------|
||--x---------x-x---------|---5---------x-x----------|
||--2----2----x-x-2-------|--------5----x-x-5--------|
||-------2----x-x-2-------|--------3----x-x-3--------|

  PM PM PM PM PM PM PM PM PM PM PM PM PM PM PM PM    
|-------------------------|--------------------------|
|-------------------------|--------------------------|
|-------------------------|--------------------------|
|--2--2--2--2--2--2--2--2-|-2--2--2--2--2--2--2--2---|
|--2--2--2--2--2--2--2--2-|-2--2--2--2--2--2--2--2---|
|--0--0--0--0--0--0--0--0-|-0--0--0--0--0--0--0--0---|

  PM PM PM PM PM PM PM PM PM PM PM PM PM PM PM PM
|-------------------------|-------------------------||
|-------------------------|-------------------------||
|-------------------------|-------------------------||
|--0--0--0--0--0--0--0--0-|-------------------------|| 
|--0--0--0--0--0--0--0--0-|-0-----------------------||
|-------------------------|-9-----------------------||


=(SOLO)= 
-NOT ACTUAL SOLO!
-SIMPLE BEAT FOR INTERMEDIATE PLAYERS (TRUTH= I COULDN'T BE BOTHERED TRANSPOSING THE SOLO =P)
-ADD X NOTES BETWEEN ACTUAL NOTES FOR GOOD EFFECT, MIX IT UP!!!
                         
|----------------------|----------------------|----------------------|----------------------|
|----------------------|----------------------|----------------------|----------------------|
|----------------------|--2----2----2----2----|----------------------|--2----2----2----2----|
|--5----5----5----5----|--2----2----2----2----|----------------------|--2----2----2----2----|
|--5----5----5----5----|--0----0----0----0----|--2----2----2----2----|--0----0----0----0----|
|--3----3----3----3----|----------------------|--2----2----2----2----|----------------------|
       
|----------------------|----------------------|
|----------------------|----------------------|
|----------------------|--2-------------------|
|--5----5----5----5----|--2-------------------|
|--5----5----5----5----|--0-------------------|
|--3----3----3----3----|----------------------|


=(VERSE RIFF+NEW RIFF=BRIDGE?)= 
-PRACTICE THE SECOND RIFF AND THIS SONG WILL BE AWESOME TO SHOW OFF ASWELL!
-I SWEAR THERE'S HARMONICS ON THE 10'S or 12'2, EXPERIMENT WITH IT...
  
                                   PM PM PM                        PM PM    PM PM PM PM         
||--------------------|---------------------|---------------------|------------------------||
||--------------------|---------------------|---------------------|------------------------||
||--------------------|---------------------|---------------------|------------------------||
||--------------------|---------------------|---x-----------------|------------------------||
||---2------2-----2---|-2-----2-----2--2--2-|---5--2----2-----2---|--2--2---2--2--2--2-----|| (X2)
||---2------2-----2---|-2-----2-----2--2--2-|------2----2-----2---|--2--2---2--2--2--2-----||

    PM PM  PMPM PM PM PM PM  PM PM  PMPM PM PM PM PM   
||-------------------------|-------------------------|-----------------------|---------------------| |
||-------------------------|-------------------------|-----------------------|---------------------| |
||-------------------------|-------------------------|-----------------------|---------------------| |
||-------------------------|-------------------------|-----------------------|---------------------| |
||--10-9--10-12-10-9--10-9-|-10-9--10-12-10-9--10-9--|--10-9-10-12-10-9-10-9-|10-9-10-12-10-9-10-9-| |
||-------------------------|-------------------------|-----------------------|---------------------| |


=(CHORUS 3)=
-THERE's AN EXTRA CHORUS RIFF!
-PLUS, THERES NO SINGLE 9 and 0 NOTE ON THE FINAL BAR SO PLAY EIGHT OF THEM!
                            
||------------------------|--------------------------|
||------------------------|--------------------------|
||------------------------|---x----------------------|
||--x---------x-x---------|---5---------x-x----------|
||--2----2----x-x-2-------|--------5----x-x-5--------|
||-------2----x-x-2-------|--------3----x-x-3--------|

  PM PM PM PM PM PM PM PM PM PM PM PM PM PM PM PM    
|-------------------------|--------------------------|
|-------------------------|--------------------------|
|-------------------------|--------------------------|
|--2--2--2--2--2--2--2--2-|-2--2--2--2--2--2--2--2---|
|--2--2--2--2--2--2--2--2-|-2--2--2--2--2--2--2--2---|
|--0--0--0--0--0--0--0--0-|-0--0--0--0--0--0--0--0---|

  PM PM PM PM PM PM PM PM PM PM PM PM PM PM PM PM
|-------------------------|-------------------------||
|-------------------------|-------------------------||
|-------------------------|-------------------------||
|--0--0--0--0--0--0--0--0-|-------------------------|| (X3)
|--0--0--0--0--0--0--0--0-|-0--0--0--0--0--0--0--0--||
|-------------------------|-9--9--9--9--9--9--9--9--||


=(OUTRO)=
-DONT SPAZ IF YOU LOSE IT THE FIRST TIME, UST PRACTICE IT FOR PERFECTION, IT ISNT THAT FAST!

   PM PM PM  PM PM PM PM PM  PM PM PM PM PM PM PM PM  
||--------------------------|-------------------------|
||--------------------------|-------------------------|
||--------------------------|-------------------------|
||--------------------------|-------------------------|
||--9--7--9--10-9--7--9--7--|-9--7--9--10-9--7--9--7--|
||--------------------------|-------------------------|

|---------------------------|-------------------------|
|---------------------------|-------------------------|
|---------------------------|-------------------------|
|---------------------------|-------------------------|
|--9--7--9--10-9--7--9--7---|-9--7--9--10-9--7--9--7--|
|---------------------------|-------------------------|

|---------------------------|-------------------------|
|---------------------------|-------------------------|
|---------------------------|-------------------------|
|---------------------------|-------------------------|
|--10-9--10-12-10-9--10-9---|--9--7--5--7--5--4--5--4-|
|---------------------------|-------------------------|

|---------------------------|-------------------------|
|---------------------------|-------------------------|
|---------------------------|-------------------------|
|---------------------------|-------------------------|
|--9--7--5--7--5--4--5--4---|--9--7--5--7--5--4--5--4-|
|---------------------------|-------------------------|

|------------------------||
|------------------------||
|------------------------||
|--2-2-2-----2-2-2-------||
|--2-2-2-----2-2-2-------||

THE END

For Krystyna 
Tap to rate this tab
# A B C D E F G H I J K L M N O P Q R S T U V W X Y Z