Song name
# A B C D E F G H I J K L M N O P Q R S T U V W X Y Z

Skiltron - Tartans March tab

Song : Tartan's March
Artist : Skiltron (http://www.skiltron.net/)
Genre : Folk Metal
Album : The Clans Have United
Year : 2006
Tuning : Normal (EADGBe)
Tabbed By : Valenten

Comments :
  * This song is really easy to play ; it's a good song for beginners who want to play 
stuffs.
  * Just listen to the song to get the good rythm.. it'll only take a couple of minutes.


e|----------|----------|------------|
B|----------|----------|------------|
G|--5-------|--5---8---|--5-5---8---|
D|--5-------|--5---8---|--5-5---8---|
A|--3-------|--3---6---|--3-3---6---|
E|----------|----------|------------|


e|---------------|
B|---------------|
G|--5-5---8-7-5--|   (x6) [Rhythm Variation Feel]
D|--5-5---8-7-5--|
A|--3-3---6-5-3--|
E|---------------|


e|-----------|-----------|-----------|
B|-----------|-----------|-----------|
G|--5-5--8---|--5----8---|--5--------|
D|--5-5--8---|--5----8---|--5--------|
A|--3-3--6---|--3----6---|--3--------|
E|-----------|-----------|-----------|
Tap to rate this tab
# A B C D E F G H I J K L M N O P Q R S T U V W X Y Z