Song name
# A B C D E F G H I J K L M N O P Q R S T U V W X Y Z

Skin Yard - Miss You tab

Ok, so this my first tab and it's no where near perfect but there isn't any
tabs for this that I could find on the internet. I wasn't able to figure out
any of the lead parts but it's better than nothing.

http://www.skin-yard.com/

Band: Skin Yard
Album: Inside the Eye
Song: Miss You

Intro:
                  x8                 x1
e|---------------0--|------------------|
B|---------------0--|------------------|
G|------------3--0--|------------------|
D|-2--2-2--3--3--0--|---------------2--|
A|-2--2-2--3--1-----|-2-2--2-3-3--3-2--|
E|-0--0-0--1--------|-0-0--0-1-1--1-0--|

Verse:
                                              x5
e|----------------------------------------------|
B|----------------------------------------------|
G|----------------------------------------------|
D|-------------------------------------------2--|
A|-2-2--2-3-3--3-2-2--2-5-5--5-2-2--2-3-3--3-2--|
E|-0-0--0-1-1--1-0-0--0-3-3--3-0-0--0-1-1--1-0--|
PM . .  . . .  . . .  . . .  . . .  . . .  .

Chorus:
                           x1 F#5 A5  A#5 C5 x2
e|---------------------------|-----------------|
B|---------------------------|-----------------|These are just the chords if
G|---------------------------|-----2---3---5---|you listen to the song you
D|---------------------------|-4---2---3---5---|can figure out the rhythm
A|-2-2--2-3-3--3-2-2--2-5-5--|-4---0---1---3---|
E|-0-0--0-1-1--1-0-0--0-3-3--|-2---------------|
PM . .  . . .  . . .  . . .


Verse:
                  x1                                             x5
e|------------------|----------------------------------------------|
B|------------------|----------------------------------------------|
G|------------------|----------------------------------------------|
D|---------------2--|-------------------------------------------2--|
A|-2-2--2-3-3--3-2--|-2-2--2-3-3--3-2-2--2-5-5--5-2-2--2-3-3--3-2--|
E|-0-0--0-1-1--1-0--|-0-0--0-1-1--1-0-0--0-3-3--3-0-0--0-1-1--1-0--|
                   PM . .  . . .  . . .  . . .  . . .  . . .  .

Chorus:
                          x1 F#5 A5  A#5 C5 x2
e|---------------------------|-----------------|
B|---------------------------|-----------------|These are just the chords if
G|---------------------------|-----2---3---5---|you listen to the song you
D|---------------------------|-4---2---3---5---|can figure out the rhythm
A|-2-2--2-3-3--3-2-2--2-5-5--|-4---0---1---3---|
E|-0-0--0-1-1--1-0-0--0-3-3--|-2---------------|
PM . .  . . .  . . .  . . .

Solo Rhythm:
                 x8                 x1
e|---------------0--|------------------|
B|---------------0--|------------------|
G|------------3--0--|------------------|
D|-2--2-2--3--3--0--|---------------2--|
A|-2--2-2--3--1-----|-2-2--2-3-3--3-2--|
E|-0--0-0--1--------|-0-0--0-1-1--1-0--|

Verse:
                                              x5
e|----------------------------------------------|
B|----------------------------------------------|
G|----------------------------------------------|
D|-------------------------------------------2--|
A|-2-2--2-3-3--3-2-2--2-5-5--5-2-2--2-3-3--3-2--|
E|-0-0--0-1-1--1-0-0--0-3-3--3-0-0--0-1-1--1-0--|
PM . .  . . .  . . .  . . .  . . .  . . .  .

Chorus:
                          x1 F#5 A5  A#5 C5 x2
e|---------------------------|-----------------|
B|---------------------------|-----------------|These are just the chords if
G|---------------------------|-----2---3---5---|you listen to the song you
D|---------------------------|-4---2---3---5---|can figure out the rhythm
A|-2-2--2-3-3--3-2-2--2-5-5--|-4---0---1---3---|
E|-0-0--0-1-1--1-0-0--0-3-3--|-2---------------|
PM . .  . . .  . . .  . . .

Outro:
            x8                 x1
e|------------|------------------|
B|------------|------------------|
G|------------|---------------1--|
D|-2--2-2--3~-|-2-2--2-3-3--3-2--|
A|-2--2-2--3~-|-2-2--2-3-3--3-2--|
E|-0--0-0--1~-|-0-0--0-1-1--1-0--|
Tap to rate this tab
# A B C D E F G H I J K L M N O P Q R S T U V W X Y Z