Song name
# A B C D E F G H I J K L M N O P Q R S T U V W X Y Z

Skin Yard - Skins In My Closet tab

e|--------------------------------|
B|--------------------------------|
G|--------------------9---------9-|
D|--------------------9---------9-|
A|---9-9-8--8-8-8-8-8-7-8-8-8-8-7-|
E|-\-7-7-6--6-6-6-6-6-7-6-6-6-6-7-|

e|---------------|
B|---------------|
G|---------------|
D|-9-9-8---------|
A|-9-9-8---------|
E|-7-7-6---------|

Solo (pinch the bent 9)
e|-------------------|---------------------------------|
B|-------------------|------8-10-12-13b15br13-13-12-10-|
G|--9~--9b-9br\7-7-9-|-/7-9----------------------------|
D|-------------------|---------------------------------|
A|-(7)---------------|---------------------------------|
E|-------------------|---------------------------------|

e|--------------|----------------------------------|
B|-10b-10br\8---|-15-17b-17-14-15-12-14-12-14b-12~-|
G|------------9-|----------------------------------|
D|--------------|----------------------------------|
A|--------------|----------------------------------|
E|--------------|----------------------------------|

That's it for the intro. I haven't figured out the other parts, thought.
Tap to rate this tab
# A B C D E F G H I J K L M N O P Q R S T U V W X Y Z