Song name
# A B C D E F G H I J K L M N O P Q R S T U V W X Y Z

Skin - Carmen Queasy tab

Skin feat. Maxim - Carmen Queasy (completely forgotten song)


tune down 1/2 step

Eb,Ab,Db,Gb,Bb,Eb


 intro

|------------------|------------------|
|------------------|------------------|
|---------0--------|---------0--------|
|-------2----------|-------2----------|
|-----2------------|-----2------------|
|-0------------3-2-|-0----------------|


 verse

|------------------|------------------|------------------|------------------|
|------------------|------------------|------------------|------------------|
|---------0--------|---------0--------|---------0--------|---------0--------|
|-------2----------|-------2----------|-------2----------|-------2----------|
|-----2------------|-----2------------|-----2------------|-----2------------|
|-0------------3-2-|-0--------------1-|-0------------3-2-|-0----------------|

|------------------|------------------|------------------|------------------|
|---------1--------|------------------|------------------|------------------|
|-------2----------|---------3--------|---------0--------|---------0--------|
|-----2------------|-------5----------|-------2----------|-------2----------|
|-0----------------|-----5------------|-----2------------|-----2------------|
|------------------|-3----------------|-0------------3-2-|-0----------------|



 additional verse gtr (slide)

|------------------|------------------|------------------|------------------|
|------------------|------------------|------------------|------------------|
|-9------------7---|-4------------7---|-9----------------|------------------|
|------------------|------------------|------------------|------------------|
|------------------|------------------|------------------|------------------|
|------------------|------------------|------------------|------------------|



 chorus

|-----------------------------------|-----------------------------------|
|-----------------------------------|-----------------------------------|
|-9-9-x-x-x-x-9-9-x-x---------------|-9-9-x-x-x-x-9-9-x-x---------------|
|-9-9-x-x-x-x-9-9-x-x---------------|-9-9-x-x-x-x-9-9-x-x---------------|
|-7-7-x-x-x-x-7-7-x-x-7--/10-9-10---|-7-7-x-x-x-x-7-7-x-x-7--/10-9-10---|
|-----------------------------------|-----------------------------------|

|---------------------------------|---------------------------------|
|---------------------------------|---------------------------------|
|-5-5-5-5-5-5-5-5-5-5-5-5-5-5-----|---------------------------------|
|-5-5-5-5-5-5-5-5-5-5-5-5-5-5-----|-5-5-5-5-5-5-5---4-4-4-4-4-4-4---|
|-3-3-3-3-3-3-3-3-3-3-3-3-3-3-----|-5-5-5-5-5-5-5---4-4-4-4-4-4-4---|
|-----------------------------0---|-3-3-3-3-3-3-3---2-2-2-2-2-2-2---|
 


 before 2nd chorus

|------------------|
|----------------7-|
|--------------7---|
|----------7h9-----|
|------------------|
|------------------|


 after 2nd chorus

|-5----------------|------------------|
|------------------|------------------|
|------------------|------------------|
|------------------|-2----------------|
|------------------|------------------|
|------------------|------------------|


 in the bridge bass plays just A note
Tap to rate this tab
 
# A B C D E F G H I J K L M N O P Q R S T U V W X Y Z