Song name
# A B C D E F G H I J K L M N O P Q R S T U V W X Y Z

Skindred - Falling Down tab

Tab by: Kurtz A(kurtz22@hotmail.com)
Skindred: Falling Down
Drop D tuning

intro/verse
(Heavy Overdrive)
E--2--------|-2-------2---|  Vocals, Heavy Bass and Drums Follows......
B----2--3---|---2--3------|
G---------4-|-------------|
D-----------|-------------|
A-----------|-------------|
D-----------|-------------|

   There's a whole in my head........

pre chorus:
E--------------|---------------------|
B--------------|---------------------|
G--------------|---------------------|
D-5x4x0-/-777--|--5x4x0-/-77-/-1010--|
A-5x4x0-/-777--|--5x4x0-/-77-/-1010--|
D-5x4x0-/-777--|--5x4x0-/-77-/-1010--|
  (Heavy Sreams)

chorus:
(heavy strumming w/ heavy overdrive)
E---------------------------------------------|
B---------------------------------------------|
G-------------13-13-13-13---------------------|  (its easy to play, just 
D-12-12-12-12-11-11-11-11-4-4-4-4--7-7-7-7----|    watch for the changes
A-12-12-12-12-11-11-11-11-4-4-4-4--7-7-7-7----|     in the chorus)
D-12-12-12-12-11-11-11-11-4-4-4-4--7-7-7-7----|

   I will not fall for you..................

end Riff...
E----------------|
A----------------|
G--7-------------|
D--5-4-0---------|
A--5-4-0--pause--|
D--5-4-0---------|



*Well thats all it is for this song feel free to correct me(kurtz22@hotmail.com), its up
to you to figure out the song structure, its easy so have fun playin it its a great song.
and SKINDRED ROCKS!!!
Tap to rate this tab
# A B C D E F G H I J K L M N O P Q R S T U V W X Y Z