Song name
# A B C D E F G H I J K L M N O P Q R S T U V W X Y Z

Skindred - Bruises tab

Tuning: Drop C - CGCFAD

Intro
C|-------------------------|------------------------|
G|-------------------------|------------------------|
C|-------------------------|------------------------|   
F|-------------------------|------------------------| x3
A|-------------------------|------------------------|
D|-6-6-5-0--6-6-5-0--6-6-0-|-6-6-5-0--6-6-----------|

Main riff/Chorus
C|-------------------------|----------------------------|
G|-------------------------|----------------------------|
C|-------------------------|----------------------------|
F|-6-6--5-0--6-6--5-0------|-5-5--5-5--6p0--0-0-x-x-x-x-| x3
A|-6-6--5-0--6-6--5-0------|-5-5--5-5--6p0--0-0-x-x-x-x-| 
D|-6-6--5-0--6-6--5-0--9br-|-5-5--5-5--6p0--0-0-x-x-x-x-|

Verse
C|--------------------------------------|
G|--------------------------------------|
C|--------------------------------------|
F|--------------------------------------|
A|------------------------slide-down----|
D|-6-6--5-0--6-6--5-0-------------------|
pm. . . . . . . . 

Chorus/Riff
C|-------------------------|----------------------------|
G|-------------------------|----------------------------|
C|-------------------------|----------------------------|
F|-6-6--5-0--6-6--5-0------|-5-5--5-5--6p0--0-0-x-x-x-x-| x2
A|-6-6--5-0--6-6--5-0------|-5-5--5-5--6p0--0-0-x-x-x-x-| 
D|-6-6--5-0--6-6--5-0--9br-|-5-5--5-5--6p0--0-0-x-x-x-x-|

Verse
C|--------------------------------------|
G|--------------------------------------|
C|--------------------------------------|
F|--------------------------------------|
A|------------------------slide-down----|
D|-6-6--5-0--6-6--5-0-------------------|
pm. . . . . . . . 

Riff
C|----------------------------|------------------------------|
G|----------------------------|------------------------------|
C|----------------------------|------------------------------|
F|----------------------------|------------------------------|
A|----------------------------|------------------------------| 
D|-5-5--5-6p5--5-5--5-6p5-3-3-|-5-5--5-6p5--5-5--5-5---------|

Bridge
C|--------------------------------------|
G|--------------------------------------|
C|--------------------------------------|
F|--------------------------------------|
A|--------------------------------------|
D|-6p5p0-0-6p5p0-0-6p5p0--0--9--9-9-9-9-|

Chorus/Riff
C|-------------------------|----------------------------|
G|-------------------------|----------------------------|
C|-------------------------|----------------------------|
F|-6-6--5-0--6-6--5-0------|-5-5--5-5--6p0--0-0-x-x-x-x-| x2
A|-6-6--5-0--6-6--5-0------|-5-5--5-5--6p0--0-0-x-x-x-x-| 
D|-6-6--5-0--6-6--5-0--9br-|-5-5--5-5--6p0--0-0-x-x-x-x-|

Outro
C|----------------------------|
G|----------------------------|
C|----------------------------|
F|-5-5--5-5--6p0--0-0-x-x-x-x-|
A|-5-5--5-5--6p0--0-0-x-x-x-x-| 
D|-5-5--5-5--6p0--0-0-x-x-x-x-|
Tap to rate this tab
# A B C D E F G H I J K L M N O P Q R S T U V W X Y Z