Song name
# A B C D E F G H I J K L M N O P Q R S T U V W X Y Z

Skindred - Pressure tab

Band - Skindred
Song - Pressure
Album - Babylon

Tuning - very low but it sounds ok , Drop B

Intro/Chorus;

|------------------18-----|
|-----16-----16-----------|
|-------------------------|    
|-1-0----1-0----0---------|
|-1-0----1-0----0---------|
|-1-0----1-0----0---------| Repeat Loads

Verse;

|-------------------------|
|-------------------------|
|-------------------------|
|-12/---12/----5-5-0------| Repeat A few Times
|-12/---12/----5-5-0------|
|-12/---12/----5-5-0------|
Tap to rate this tab
# A B C D E F G H I J K L M N O P Q R S T U V W X Y Z