Song name
# A B C D E F G H I J K L M N O P Q R S T U V W X Y Z

Skindred - World Domination tab

World domination- Skindred- Babylon

Drop C tuning.

Intro
                                                               X2
D|-------------------------------------------------------------|
A|-------------------------------------------------------------|
F|-------------------------------------------------------------|
C|--4-3-3-3-3-3-3-3-4-3-3-3-3-3-3-4-3-3-3-4-3-3-4-3-3-3-3-3-3--|
G|-------------------------------------------------------------|
C|-------------------------------------------------------------|


Verse riff
                                             X4
D|-------------------------------------------|
A|-------------------------------------------|
F|-------------------------------------------|
C|-------------------------------------------|
G|--3--0--3---3--0--3---3--0--3---4--5--6-6--|
C|--3--0--3---3--0--3---3--0--3---4--5--6-6--|


Pre chorus

D|------------------------------------------------------------|
A|------------------------------------------------------------|
F|------------------------------------------------------------|
C|------------------------------------------------------------|
G|--4-3-3-3-4-3-3-4-3-3-3-3-3-3-9-9-9-9-9-9-9-9-9-9-9-9-9-9-9-|
C|--4-3-3-3-4-3-3-4-3-3-3-3-3-3-9-9-9-9-9-9-9-9-9-9-9-9-9-9-9-|

                                                               X1
  --------------------------------------------------------------|
  --------------------------------------------------------------|
  --------------------------------------------------------------|
  --------------------------------------------------------------|
  -6-6-6-6-6-6-6-6-6-6-6-6-6-6-7-7-7-7-7-7-7-7-8-8-8-8-8-8-8-8--|
  -6-6-6-6-6-6-6-6-6-6-6-6-6-6-7-7-7-7-7-7-7-7-8-8-8-8-8-8-8-8--|

Chorus
                          X4
D|-------------------------|
A|-------------------------|
F|-------------------------|
C|-------------------------|
G|--4--5--6--7--4-5--6--7--|
C|--4--5--6--7--4-5--6--7--|


Repeat Verse riff X4
repeat Pre chorus
Repeat Chorus X4
Interlude, no guitar.
Repeat Intro X2
Chorus X4
Pre chorus X2

Outro
                                            X2
D|----------1---------3---------1------------|
A|----------1---------3---------1------------|
F|-------------------------------------------|
C|-------------------------------------------|
G|--3--0--3---3--0--3---3--0--3---4--5--6-6--|
C|--3--0--3---3--0--3---3--0--3---4--5--6-6--|

Yea this is the 1st tab i wrote out but sounds about right. Winkle.
Tap to rate this tab
 
# A B C D E F G H I J K L M N O P Q R S T U V W X Y Z