Song name
# A B C D E F G H I J K L M N O P Q R S T U V W X Y Z

Skindred - Killing Me tab

Drop C Tuning
Intro w/ Delay
|-------------------|----|
|-------------------|----|
|-------------------|----|
|---------12--11----|-12-|
|------9------------|-9--|
|---9---------------|-9--|

Pre-Verse
Work out the strummuming, its not hard....
|-----------------|
|-----------------|
|-----------------|
|9/12--2---5--4--8|
|9-----2---5--4--9|
|9-----2---5--4--8|

Verse Fill

|-----10/9---------------9/10--------------|
|------------------------------------------|
|------------------------------------------|
|------------------------------------------|
|------------------------------------------|
|------------------------------------------|


Chorus

|----------------------------------------------|
|----------------------------------------------|
|---------7---5-7----4-----7-------------------|
|-9^12--0-x---5----2-2---5-5-------------------|
|-9-----0-5---5----2-2---5-5-------------------|
|-9-----0-----5----2-2---5-5-------------------|

INTRO

Overly Ditroted Bit, (Soundss sterotypical but you have to rebel)
Got only knows, but something along the lines of an open D on 12th fret. (So a C
withthe tuning...Woop)
Tap to rate this tab
# A B C D E F G H I J K L M N O P Q R S T U V W X Y Z