Song name
# A B C D E F G H I J K L M N O P Q R S T U V W X Y Z

Skindred - Stand For Something tab

Hey Hey people, this is my first tab, 
I don't know much about the song structure and may be a few notes missing
any problems : metalberserker@hotmail.com


Intro:


D |-----------------------------|
A |-----------------------------|
F |-------/10-10-10\6--6--6--6\-|
C |-------/x--x--x-\x--x--x--x\-|
G |-------/8--8--8-\4--4--4--4\-|
C |-3-5-0-----------------------| x3

|-------------------------------------------|
|-------------------------------------------|
|-------/10-10-10\6--6--6--6--6--6--6--6--6-|
|-------/x--x--x-\x--x--x--x--x--x--x--x--x-|
|-------/8--8--8-\4--4--4--4--4--4--4--4--4-|
|-3-5-0-------------------------------------| 

|---------------------------|
|---------------------------|
|---------------------------|
|-0-1-0-6\1/6-6-6-0-0-0-0-0-|
|-0-1-0-6\1/6-6-6-0-0-0-0-0-|
|-0-1-0-6\1/6-6-6-0-0-0-0-0-| x4

verse 1 :

|-----------------------------|
|-----------------------------|
|-------/10-10-10\6--6--6--6\-|
|-------/x--x--x-\x--x--x--x\-|
|-------/8--8--8-\4--4--4--4\-|
|-3-5-0-----------------------| x5

|---------------------|
|---------------------|
|-------/10-10-10\6---|
|-------/x--x--x-\x---|
|-------/8--8--8-\4---|
|-3-5-0---------------|

chorus :

|------------------------------------|
|------------------------------------|
|------------------------------------|
|-0-0-0-0--3-3-3-3--8-8-8-8--5-5-5-5-|
|-0-0-0-0--3-3-3-3--8-8-8-8--5-5-5-5-|
|-0-0-0-0--3-3-3-3--8-8-8-8--5-5-5-5-|

|---------------------------------------|
|---------------------------------------|
|---------------------------------------|
|-0-0-0-0--3-3-3-3--8-8-8-8---8-8-3-3-6-|
|-0-0-0-0--3-3-3-3--8-8-8-8---8-8-3-3-6-|
|-0-0-0-0--3-3-3-3--8-8-8-8---8-8-3-3-6-|

|----------------------------------------------------|
|----------------------------------------------------|
|----------------------------------------------------|
|-0-0-0-0-0-0--3-3-3-3-3-3--8-8-8-8-8-8--5-5-5-5-5-5-|
|-0-0-0-0-0-0--3-3-3-3-3-3--8-8-8-8-8-8--5-5-5-5-5-5-|
|-0-0-0-0-0-0--3-3-3-3-3-3--8-8-8-8-8-8--5-5-5-5-5-5-|

|---------------------------------------|
|---------------------------------------|
|---------------------------------------|
|-0-0-0-0--3-3-3-3--8-8-8-8---8-8-3-3-6-|
|-0-0-0-0--3-3-3-3--8-8-8-8---8-8-3-3-6-|
|-0-0-0-0--3-3-3-3--8-8-8-8---8-8-3-3-6-|



|---------------------------|
|---------------------------|
|---------------------------|
|-0-1-0-6\1/6-6-6-0-0-0-0-0-|
|-0-1-0-6\1/6-6-6-0-0-0-0-0-|
|-0-1-0-6\1/6-6-6-0-0-0-0-0-|

verse 2 :

|---------------------------|
|---------------------------|
|---------------------------|
|---------------------------|
|---------------------------|
|-b6/1---0-3-1-0------------| x2


chorus :

|------------------------------------|
|------------------------------------|
|------------------------------------|
|-0-0-0-0--3-3-3-3--8-8-8-8--5-5-5-5-|
|-0-0-0-0--3-3-3-3--8-8-8-8--5-5-5-5-|
|-0-0-0-0--3-3-3-3--8-8-8-8--5-5-5-5-|

|---------------------------------------|
|---------------------------------------|
|---------------------------------------|
|-0-0-0-0--3-3-3-3--8-8-8-8---8-8-3-3-6-|
|-0-0-0-0--3-3-3-3--8-8-8-8---8-8-3-3-6-|
|-0-0-0-0--3-3-3-3--8-8-8-8---8-8-3-3-6-|

|--------------------------------|
|--------------------------------|
|--------------------------------|
|-000000--333333--888888--555555-|
|-000000--333333--888888--555555-|
|-000000--333333--888888--555555-|

|---------------------------------------|
|---------------------------------------|
|---------------------------------------|
|-0-0-0-0--3-3-3-3--8-8-8-8---8-8-3-3-6-|
|-0-0-0-0--3-3-3-3--8-8-8-8---8-8-3-3-6-|
|-0-0-0-0--3-3-3-3--8-8-8-8---8-8-3-3-6-|

verse 3 :

|---------------------------|
|---------------------------|
|---------------------------|
|---------------------------|
|---------------------------|
|-0-3-5-0--0-0--------------| x8

|-----------8-8-8-----------|
|--10-10-10-------8-8-8-8-8-|
|---------------------------|
|---------------------------|
|---------------------------|
|---------------------------| x3

|-----------8-8-8--10-10-10-10-10---|
|--10-10-10-------------------------|
|-----------------------------------|
|-----------------------------------|
|-----------------------------------|
|-----------------------------------|

pre-chorus : 
|---------------------------|
|---------------------------|
|---------------------------|
|---------------------------|
|-8888888/10--8888888/12----|
|-8888888/10--8888888/12----|

ending chorus :

|------------------------------------|
|------------------------------------|
|------------------------------------|
|-0-0-0-0--3-3-3-3--8-8-8-8--5-5-5-5-|
|-0-0-0-0--3-3-3-3--8-8-8-8--5-5-5-5-|
|-0-0-0-0--3-3-3-3--8-8-8-8--5-5-5-5-|

|---------------------------------------|
|---------------------------------------|
|---------------------------------------|
|-0-0-0-0--3-3-3-3--8-8-8-8---8-8-3-3-6-|
|-0-0-0-0--3-3-3-3--8-8-8-8---8-8-3-3-6-|
|-0-0-0-0--3-3-3-3--8-8-8-8---8-8-3-3-6-|

|--------------------------------|
|--------------------------------|
|--------------------------------|
|-000000--333333--888888--555555-|
|-000000--333333--888888--555555-|
|-000000--333333--888888--555555-|

|--------------------------------|
|--------------------------------|
|--------------------------------|
|-000000--333333--888888--555555-|
|-000000--333333--888888--555555-|
|-000000--333333--888888--555555-|

|---------------------------------------|
|---------------------------------------|
|---------------------------------------|
|-0-0-0-0--3-3-3-3--8-8-8-8---8-8-3-3-6-|
|-0-0-0-0--3-3-3-3--8-8-8-8---8-8-3-3-6-|
|-0-0-0-0--3-3-3-3--8-8-8-8---8-8-3-3-6-|
Tap to rate this tab
# A B C D E F G H I J K L M N O P Q R S T U V W X Y Z