Song name
# A B C D E F G H I J K L M N O P Q R S T U V W X Y Z

Skindred - Pressure Acoustic tab

----------------------------------------------------------------------------
          	       Pressure [acoustic] - Skindred
----------------------------------------------------------------------------
Tabbed by: Skipper Mikkel
Email: Mikkel_sejl@Hotmail.com

Tuning: Standard (low to high - EADGBE)


Intro:

Riff A:  x 4
----------------------------|
---------1-1-1-1-1----------|
---------0-2-2p0-0-0-0-0-0--|
-----0/2---0-0-0-0-2-2p0-0--|
-3-3------------------------|
----------------------------|

Pressure oh huh
Pressure oh huh
Cannot take the pressure away 


Verse 1:

Riff B:  x 4
------------------------------|
---------6-6---------6---6----|
---5-5---5-5---5-5---5---5----|
---5-5---7-7---5-5---7---7----|
-3-----5-----3-----5---5------|
------------------------------|

Buzzing up with a musical attack
Rip it up with a boom sound we no lack
Got the rhythms the dub plat killa tracks
Annihilate and destroy them we do that
Letting them know that ah we come to
Rock and control again
Ho ho well
Setting the pace in the place
Volume up driving them insane
Oh that's right


Pre-chorus:

Riff C:  x 2
-10------8-------|
-8-------6-------|
-7-------5-------|
-9-------7-------|
-7-------5-------|
-----------------|

Turn that system down
Whats wrong with people cannot take it
Burn it to the ground
Watch how we shatters and we break it


Chorus:

Riff D:  x 4
-----------------------------|
---5-5---6-6---8-8---6---6---|
---5-5---5-5---7-7---5---5---|
---5-5---7-7---9-9---7---7---|
-3-----5-----7-----5---5-----|
-----------------------------|

Stress it just drive them underground
Cannot take the music kill the sound
Yeah we turn it up and never down
Stress it just drive them underground
Cannot take the music kill the sound
Yeah we turn it up and never down


Post-chorus:

Riff A  x 4

Pressure oh huh
Pressure oh huh
Pressure oh huh


Verse 2:

Riff B  x 4

Annoying neighbours are banging on your door
Saying that they can't take your noise no more
Your bass is right in there face sounds murder raw
But ain't turning it off so call the law
Let them all know that
The rockers is hard and is here to stay
Ho ho well
Setting the pace in the place
Volume up driving them insane
Oh that's right


Pre-chorus:

Riff C  x 2

Turn that system down
Whats wrong with people cannot take it
Burn it to the ground
Watch how we shatters and we break it


Chorus:

Riff D  x 4

Stress it just drive them underground
Cannot take the music kill the sound
Yeah we turn it up and never down
Stress it just drive them underground
Cannot take the music kill the sound
Yeah we turn it up and never down


Post-chorus:

Riff A  x 8


Pre-chorus:

Riff C  x 2

Turn that system down
Whats wrong with people cannot take it
Burn it to the ground
Watch how we shatters and we break it


Chorus:

Riff D  x 4

Stress it just drive them underground
Cannot take the music kill the sound
Yeah we turn it up and never down
Stress it just drive them underground
Cannot take the music kill the sound
Yeah we turn it up and never down


Outro:

Riff A  x 8

Pressure oh huh
Pressure oh huh
Pressure oh huh
Pressure oh huh
Cannot take the pressure away
I cant take the pressure away
Cannot take the pressure
Tap to rate this tab
# A B C D E F G H I J K L M N O P Q R S T U V W X Y Z