Song name
# A B C D E F G H I J K L M N O P Q R S T U V W X Y Z

Skinflicks - Were The Skinflicks tab

Were The Skinflicks by: The Skinflicks

Riff 1:
    E  F# B
E|-----------|
B|-----------|
G|-----------|
D|--------4--|
A|--2--4--2--|
E|--0--2-----|

Riff 2:
    D     A           B     G
E|--------------------------------------|
B|--------------------------------------|
G|--2--2--------------------------------|
D|--0--0--2--2--2--2--4--4--------------|
A|--------0--0--0--0--2--2--5--5--5--5--|
E|--------------------------3--3--3--3--|


by:themechanix100
Tap to rate this tab
 
# A B C D E F G H I J K L M N O P Q R S T U V W X Y Z