Song name
# A B C D E F G H I J K L M N O P Q R S T U V W X Y Z

Skinlab - One Of Us tab

Help us improve GuitareTab! Take a short survey!
One of Us
Author/Artist: Skinlab
Album: The Revolting Room
Transcribed by: jason johnson
Email: jgeckoking@hotmail.com

Tuning: A sharp (A#,E#,A#,D#,G#,B#)

x = mute
. = palm mute

-3--------
-2--------
-1--------
----------
----------
----------
                                                                              

intro:
-------------------------------|----------------------------------------------
-------------------------------|----------------------------------------------
-------------------------------|-6-6-6-6-6-6----------------------------------
-0-6-5--0-3-5---0-6-5--0-3-5---|-6-6-6-6-6-6----------------------------------
-------------------------------|-4-4-4-4-4-4----------------------------------
-------------------------------|----------------------------------------------

intro2: palm muted
-------------------------------|----------------------------------------------
-------------------------------|----------------------------------------------
-------------------------------|-6-6-6-6-6-6----------------------------------
-0-6-5--0-3-5---0-6-5--0-3-5---|-6-6-6-6-6-6----------------------------------
-------------------------------|-4-4-4-4-4-4----------------------------------
-------------------------------|----------------------------------------------
 . . .  . . .   . . .  . . .                                                                             


now that you're one of us!
------------------------------------------------------------------------------
------------------------------------------------------------------------------
------------------------------------------------------------------------------
-0-6-5--0-3-5--0-6-5--0-3-5---------------------------------------------------
-0-6-5--0-3-5--0-6-5--0-3-5---------------------------------------------------
-0-6-5--0-3-5--0-6-5--0-3-5---------------------------------------------------
                                                                              

2:30: they add a bunch of effects onto this like phaser and wah                    
-------------------------|----------------------------------------------------
-------------------------|----------------------------------------------------
--------6-6-6-6-6-6-6----|-7-7-7-7-7------------------------------------------
-0-0-0--x-x-x-x-x-x-x----|-x-x-x-x-x------------------------------------------
-0-0-0--4-4-4-4-4-4-4----|-5-5-5-5-5------------------------------------------
-0-0-0-------------------|----------------------------------------------------
 . . .
Related for One Of Us tab