Song name
# A B C D E F G H I J K L M N O P Q R S T U V W X Y Z

Skinlab - Skapegoat tab

Band: SkinlaB
Song: Skapegoat
Transcribed by: jose oRejeL (albafreak1@juno.com)
drop D
"listen to the song for the order it's played"

IntRo:

E|-----------------------------------|
B|-----------------------------------|
G|-----------------------------------|
D|--5-5-3-5-5-3-5-5-6-6-4-6-6-4-6-6--|
A|-----------------------------------|
D|-----------------------------------|

KhoRus:

E|-----------------------------------|
B|-----------------------------------|
G|-----------------------------------|
D|--5-5-3-5-5-3-5-5-6-6-4-6-6-4-6-6--|
A|--5-5-3-5-5-3-5-5-6-6-4-6-6-4-6-6--|
D|--5-5-3-5-5-3-5-5-6-6-4-6-6-4-6-6--|

SoLO:

E|----------6---|
B|-----6-5------|
G|--5-----------|
D|--------------|
A|--------------|
D|--------------|

OutRo (afteR 2nd KhoRus):

E|------------------------------|
B|------------------------------|
G|------------------------------|
D|--5-5-5-5-5-5--6-6-6-6-6-6---5|
A|--5-5-5-5-5-5--6-6-6-6-6-6---5|
D|--5-5-5-5-5-5--6-6-6-6-6-6---5|
===========

Skinlab - Scapegoat

Tabbed by ColdClown

Tuning - CGCFAD

Intro/Verses

D|-------------------------------------------------
A|-------------------------------------------------
F|-------------------------------------------------
C|--5-5-3-5-5-3-5-3-6-6-3-6-6-3-6-3----------------
G|-------------------------------------------------
C|-------------------------------------------------

Chorus

D|-------------------------------------------------
A|-------------------------------------------------
F|-------------------------------------------------
C|--5-5-3-5-5-3-5-3-6-6-3-6-6-3-6-3----------------
G|--5-5-3-5-5-3-5-3-6-6-3-6-6-3-6-3----------------
C|--5-5-3-5-5-3-5-3-6-6-3-6-6-3-6-3----------------

(Sorry, dont know solo!) Improvise!!!!
Its over some other chords, play around with the
verse chords?

Ending

D|--------------------------------------------|-----|
A|--------------------------------------------|-----|
F|--------------------------------------------|-----|
C|---5-5-5-5-5-5-5-5-5-5---6-6-6-6-6-6-6-6-6--|--5--|
G|---5-5-5-5-5-5-5-5-5-5---6-6-6-6-6-6-6-6-6--|--5--|
C|---5-5-5-5-5-5-5-5-5-5---6-6-6-6-6-6-6-6-6--|--5--|
					 End on this
Tap to rate this tab
 
# A B C D E F G H I J K L M N O P Q R S T U V W X Y Z