Song name
# A B C D E F G H I J K L M N O P Q R S T U V W X Y Z

Skinlab - Second Skin New Flesh tab

Band: Skinlab
Song: Second Skin-New Flesh
Album: Dysembodied: The new Skin
Tabbed By: Zak lyons (suckfaced@hotmail.com)
6-String tuned to C

* Harmonics

PM... Palm Mute

^ BendSTART RIFF:

|---------------|
|---------------|
|---------------|
|---2---4-----5-|
|--2---4---2----|
|-2---4---2--5--|
PM... ... .. ..

(then the other guitar scrapes
behind the humbucks)

START RIFF 2:

|---------------|
|---------------|
|---------------|
|---22---4----5-|
|--2----4---2---|
|-2----4---2--5-|
PM..   ... .. ..


MAIN RIFF:

|--------------------|----------------------|
|--------------------|----------------------|
|--------------------|----------------------|
|-222---444---22--55-|-222---444---2--------|
|-222---444---22--55-|-222---444---2-*5*5*5-|
|-222---444---22--55-|-222---444---2--------|


(Then start all over then...)|----------------|
|----------------|
|----------------|
|-44444444444444-|(you play it more than that i think)
|-22222222222222-|
|----------------|

then..

|-----------------|
|-----------------|
|-----------------|
|-----------------|
|-----------------|
|-1-0-1-0-4-0-1-0-||-----------------|
|-----------------|
|-----------------|
|-----------------|
|-1-0-------------|
|-1-0-1-0-4-0-1-0-|
PM. .


|-----------------|
|-----------------|
|-----------------|
|-1-0-1-0-4-0-1-0-|
|-1-0-1-0-4-0-1-0-|
|-1-0-1-0-4-0-1-0-|


|----------------|
|----------------|
|----------------|
|-12^12-12-12-13-|(other guitar plays this)
|----------------|
|----------------|


There, thats all the riff's. They may be in different order but
thats all. Its a great song and rock on!
Tap to rate this tab
 
# A B C D E F G H I J K L M N O P Q R S T U V W X Y Z