Song name
# A B C D E F G H I J K L M N O P Q R S T U V W X Y Z

Skinny Lister - Plough And Orion tab

-----------------------------------------------------------------
Plough & Orion - Skinny Lister
-----------------------------------------------------------------
Tabbed by: Hmm..Peculiar (J. v/d Linden)
Email: j-w _at_ live.nl

Tuning: normal
Capo: 7


e  |-5-------------------4-----------2-------------------0---------|
B o|-------5-----0---------------0---------3-----2-----------------|
G  |-------------1-------------------------------2---------------2-|
D  |---------------------------------------------------------------|
A o|-0-------0-------0-------0-------0-------0-------0-------0-----|
E  |---------------------------------------------------------------|

e|-0-------------------0-----------------------------------------|
B|-------2-----0---------------0---3-------------------2---------|o
G|-------------1-------------------------2-----2-----------------|
D|---------------------------------------------2-----------------|
A|-0-------0-------0-------0-------0-------0-------0-------0-----|o
E|---------------------------------------------------------------|

Link to their website: http://www.skinnylister.com/skinnyblog/
Tap to rate this tab
# A B C D E F G H I J K L M N O P Q R S T U V W X Y Z