Song name
# A B C D E F G H I J K L M N O P Q R S T U V W X Y Z

Skinny Puppy - Candle tab

Skinny Puppy - Candle

This is just the basic acoustic part. It's not exact but it sounds good. The electic
parts are pretty easy to figure out, it's just a power chord at 5 and 7. It's not
every day you hear Skinny Puppy with an acoustic, so I thought it would be worth
tabbing.

Matt Millar - Millydoo@hotmail.com

E--0----|
B--1----|
G--2----|
D--2----|
A--0----|
E-------|

E----------------------------------------------------------------------------|
B----------------------------------------------------------------------------|
G------0---2-----0---2-----0-2--------0---2-----0---2-----0-2----------------|
D----2---2---2-----2---2------------2---2---2-----2---2----------------------|
A--0-----------0---------0--------0-----------0---------0--------------------|
E----------------------------------------------------------------------------|

E----------------------------------------------------------------------------|
B----------------------------------------------------------------------------|
G------0---3-----2---0--3-2---0--------0---3-----2---0---3-2---0-------------|
D----1---1---1-----1--------1--------1---1---1-----1---------1---------------|
A--3-----------3-------3-----------3-----------3-------3---------------------|
E----------------------------------------------------------------------------|

E------------------0--------------------------------0------------------------|
B----------------------3---1----------------------------3---1----------------|
G------0---2-------------------2--------0---2-------------------2------------|
D----2---2---2---2--------------------2---2---2---2--------------------------|
A--0-----------0-----0---0---0------0-----------0-----0---0---0--------------|
E----------------------------------------------------------------------------|
Tap to rate this tab
# A B C D E F G H I J K L M N O P Q R S T U V W X Y Z