Song name
# A B C D E F G H I J K L M N O P Q R S T U V W X Y Z

Skinny Puppy - Magnifishit tab

E|--------------------------------------------------------------------------|
B|--------------------------------------------------------------------------|
G|------------0-0-0-------------------------------0-0-0---------------------|
D|-1--1----1--------3--------1-3-------1--1----1---------3-------1-3--------|
A|--------------------------------------------------------------------------|
E|--------------------------------------------------------------------------|

E|-------------------------------------------------------------------------|
B|-------------------------------------------------------------------------|
G|---------0--0-0-0---------------5-3--------------2-2-3-3-----------------|
D|-1--1--1-----------3--3-3-3---5-----5-3-----3/5----------3-------1-3-----|
A|-------------------------------------------------------------------------|
E|-------------------------------------------------------------------------|

This is the basis to the rest of the song. there are a few tweaks through out though.

xXx
Tap to rate this tab
# A B C D E F G H I J K L M N O P Q R S T U V W X Y Z