Song name
# A B C D E F G H I J K L M N O P Q R S T U V W X Y Z

Skint And Demoralised - Red Lipstick tab

----------------------------------------------------------------------------
		     RED LIPSTICK - Skint & Demoralised
----------------------------------------------------------------------------
Tabbed by: Matthew Barron
Email: azbazbadazbaz@ymail.com

Tuning: Standard (EADGBE)

Intro:

e|--------------------------------------|
B|--------------------------------------|
G|--------------------------------------|
D|-------7--------9--------6--------7---|
A|---5------5/7------7\4------4/5-------|
E|--------------------------------------|

"Oh!"

e|---------------------------------------------------|
B|---------------------------------------------------|
G|---7--7---9-9---6--6---7-7---7--7---9--6--6--7-7---|
D|---7--7---9-9---6--6---7-7---7--7---9--6--6--7-7---|
A|---5--5---7-7---4--4---5-5---5--5---7--4--4--5-5---|
E|---------------------------------------------------|

That chord pattern continues all the way through the song.

Enjoy!

Bazz

| /  slide up
| \  slide down
| h  hammer-on
| p  pull-off
| ~  vibrato
| +  harmonic
| x  Mute note
============================================================================
Tap to rate this tab
 
# A B C D E F G H I J K L M N O P Q R S T U V W X Y Z