Skip James - Hard Time Killing Floor Blues tab

-------------------------------------------------------------------------------
            Hard Time Killing Floore Blues - Skip James
-------------------------------------------------------------------------------
Tabbed by: Logan Moore
Email: logan@xentac.com
Credits: All credit goes to MRBABAR for figuring out how to play the song.
         I just watched him and wrote the tab.
Video: You can watch the video at http://www.youtube.com/watch?v=2gph1OmvOh8

Tuning: DADFAD (Cross-note D)

 | INTRO                                             | VERSE
D|-------------------------|-------0-----------------|-------------------------|
A|-0---0-0---0-------------|-3-------3---3-----------|-0-----------------------|
F|-------------0---0-0---0-|-----------4-------------|-------------0-----------|
D|-3---0-2---0-------------|-----0-----------0-----0-|-3---------------------0-|
A|-------------3---0-2---0-|-------------------0h3---|-----------0-3-----------|
D|-------------------------|-0-----------0-----------|-------------------------|

                                                     | CHORUS
D|-------------------------|-------------------------|---------------------------|
A|-0---------0-------------|-------------------------|---------------------------|
F|-------------------------|-0-----------0-----------|-0-----2p1---------2/4\2p0-|
D|-3---------0-------------|-----0-----0-----0-----0-|-----0-----0---------------|
A|-----------------------0-|-3-----0h2---------0h2---|---------------------------|
D|-------------------0h3---|-------------5-----------|-3-----------0---0---------|

D|---------------------------|---------------------------|-------------------------|
A|---------------------------|---------------------------|-------------------0-2-0-|
F|-2-----2p1---------2/4\2p0-|-2-----2p1---------2/4\2p0-|-2-----2p1---------------|
D|-----0-----0---------------|-----0-----0---------------|-----0-----0-------------|
A|---------------------------|---------------------------|-------------------------|
D|-3-----------0---0---------|-3-----------0---0---------|-3-----------0---0-------|

                           | VERSE
D|-------0-----------------|-------------------------|-------------------------|
A|-3-------3---3-----------|-0-----------------------|-0--------0--------------|
F|-----------4-------------|-------------0-----------|-------------------------|
D|-----0-----------0-----0-|-3---------------------0-|-3--------0--------------|
A|-------------------0h3---|-----------0-3-----------|-----------------------0-|
D|-0-----------0-----------|-------------------------|-------------------0h3---|

                           | CHORUS
D|-------------------------|---------------------------|---------------------------|
A|-------------------------|---------------------------|---------------------------|
F|-0-----------0-----------|-0-----2p1---------2/4\2p0-|-2-----2p1---------2/4\2p0-|
D|-----0-----0-----0-----0-|-----0-----0---------------|-----0-----0---------------|
A|-3-----0h2---------0h2---|---------------------------|---------------------------|
D|-------------5-----------|-3-----------0---0---------|-3-----------0---0---------|

D|---------------------------|-------------------------|-------0-----------------|
A|---------------------------|-------------------0-2-0-|-3-------3---3-----------|
F|-2-----2p1---------2/4\2p0-|-2-----2p1---------------|-----------4-------------|
D|-----0-----0---------------|-----0-----0-------------|-----0-----------0-----0-|
A|---------------------------|-------------------------|-------------------0h3---|
D|-3-----------0---0---------|-3-----------0---0-------|-0-----------0-----------|

 | VERSE
D|-------------------------|-------------------------|-------------------------|
A|-0-----------0-----------|-0-----------------------|-------------------------|
F|-------------------------|-------0-----0-----------|-0-----------0-----------|
D|-3---------0-2---------0-|-3---2-0-----0-----------|-----0-----0-----0-----0-|
A|-------0h3---------0h3---|-----------3-----------0-|-3-----0h2---------0h2---|
D|-------------------------|-------------------0h3---|-------------5-----------|

 | CHORUS                                      slow down / fade out
D|---------------------------|---------------------------|---------------------------|
A|---------------------------|---------------------------|---------------------------|
F|-0-----2p1---------2/4\2p0-|-2-----2p1---------2/4\2p0-|-2-----2p1-----------------|
D|-----0-----0---------------|-----0-----0---------------|-----0-----0---------------|
A|---------------------------|---------------------------|---------------------------|
D|-3-----------0---0---------|-3-----------0---0---------|-3-----------0-------------|


************************************

| /   slide up
| \   slide down
| h   hammer-on
| p   pull-off

************************************
Tap to rate this tab
 
# A B C D E F G H I J K L M N O P Q R S T U V W X Y Z