Skip James - Crow Jane tab

By the late,great Skip James 
4/4 Standard Tuning 
Feel Free to improvise around it as it's my first tab so don't bite my head off if i'ma bit wrong.
  
                     E                  
E--------------------|------4---0----4h0---|
B--------------------|--------0------------|
G-----------3h4------|------4----------4---|
D--------------------|---------------------|
A--------------------|---------------------|
E--------------------|0---------0----------|                        

B7/F#                A7/E
E------7----5---7----|----5----3---5h3-----|
B--------4-----------|-------2-----------2-|
G------4----------b0-|----2----2-----2-----|
D-4---------4-----b0-|-2-------------------|
A--------------------|---------------------|
E--------------------|---------------------|

A7                   E
E------3-----2-------|-----------0---------|
B---------2----------|--------0-----0------|
G------2-------------|----0h1----------0h1-|
D-----------------2--|-----h2----------2---|
A---0--------0-------|-----------2---------|
E--------------------|-0-------------------|

B7                   E
E--------------------|-----------0---------|
B------------0-------|--------0-----0------|
G---------2-----2-0h1|----0h1----------0h1-|
D----0h1-------------|-----h2----------2---|
A-2------------------|-----------2---------|
E------------0-------|-0-------------------|    

B7                   E
E--------------------|-----------0---------|-
B-----------0--------|--------0-----0------|-
G---------------2-0h1|----0h1----------0h1-|-
D----1------------0h2|-----h2----------2---|-
A-2------------------|-----------2---------|-
E--------2-----------|-0-------------------|0    
                   
Tab by Dan Gallaher

Lyrics 
Crow Janie, Crow Janie, Crow Jane
Don't you hold your head high
Someday baby, you know
You got to die
You got to lay down an -
You got to die, you got to -

You know, I wanna buy me a pistol
Wants me forty rounds of ball
Shoot Crow Jane, just to see her fall
She got to fall, she got to -
She got to fall, she got to-

That's the reason I begged, Crow Jane
Not to hold her head, so high
Someday baby, you know
You got to die
You got to lay down an -

When I dug her grave
With a silver spade
Ain't nobody gon' take
My Crow Jane place
You can't take her place
No, you can't take her -

That's the reason I begged, Crow Jane
Not to hold her head, too high
Someday baby, you know
You got to die
You got to lay down an -

You know, I let her down
With a golden chain
An ev'ry link
I would call my, Crow Jane name
Crow Jane, Crow -
Crow Jane, Crow -

You know I never missed my water
'Till my well went dry
Didn't miss Crow Jane
Until the day she died
'Till the day-ay-ay-ay she -

That's the reason I begged, Crow Jane
Not to hold her head, too high
Someday baby, you know you got to die
You got to lay down and -
You got to die, you got to -

You know, I dug her grave
Eight feet in the ground
Didn't feel sorry
Until they let her down

They had to let her down
Had-a -
They had to let her down

That's the reason I begged, Crow Jane
Not to hold her head, too high
Someday baby, you know you got to die
You got to lay down and. -
Tap to rate this tab
 
# A B C D E F G H I J K L M N O P Q R S T U V W X Y Z