Song name
# A B C D E F G H I J K L M N O P Q R S T U V W X Y Z

Skip The Use - Unbreakable Acoustic chords

Highlighted       Show chord diagrams
Artist: Skip The Use
Song: Unbreakable (acoustic)
Video 1: http://www.youtube.com/watch?v=kUdWxW1aY6Y
Video 2: http://www.youtube.com/watch?v=zcMdadMzahI
Transcription: satir3, satir3@net.hr

Tuning: half step down!
Capo: NO capo

Chords used:
E:      0.2.2.1.0.0
Eadd9:  0.2.2.1.0.2
C#9:    x.4.6.4.4.4
G#m7:   4.6.4.4.4.4
C#m:    x.4.6.6.5.4
A:      5.7.7.6.5.5
B:      7.9.9.8.7.7
E2:     0.7.9.9.9.7
E2sus4: 0.7.9.9.10.7
(A):    arpeggio

Intro: (A)
E E Riff1 
C#9 G#m7
E E Riff1 
C#9 G#m7

Verse:
            E
They wanted to cut me down
           C#9          G#m7
They wanna disparage my work
            E
They wanted to cut me down
 C#9             G#m7  
Not to make them shade

Pre-chorus:
E2 E2sus4 E2  C#m     G#m7
Hates         runs in my veins
E Eadd9   C#9      G#m7      A     B   C#m   
My dog will always remain the same one     animal
A    B    E2
Same one

Chorus:
    E                 C#9         G#m7
But I'm unbreakable, I'm unbreakable
             E 
I've decided to stop this pain
    C#9        G#m7  E2           Esus4 E
I'm unbreakable,   inside my head, 
    C#m       G#m7               E
I'm unbreakable, I've decided to break my chains
    C#9        G#m7
I'm unbreakable
(A)  E          Riff1  C#9 G#m7
Deep inside my veeeeeeeins
E  Riff1   C#9 G#m7
My veeins

Verse:
            E
They wanted to cut me down
       C#9              G#m7
Africa's anchored in my brain
           E
They wanted to cut me down
           C#9             G#m7
With their money for only name

Pre-chorus:
E2 E2sus4 E2  C#m     G#m7
Hates         runs in my veins
E Eadd9   C#9      G#m7      A     B   C#m   
My dog will always remain the same one     animal
A    B    E2
Same one

Chorus:
    E                 C#9         G#m7
But I'm unbreakable, I'm unbreakable
             E 
I've decided to stop this pain
    C#9        G#m7  E2           Esus4 E
I'm unbreakable,   inside my head, 
    C#m       G#m7               E
I'm unbreakable, I've decided to break my chains
    C#9        G#m7
I'm unbreakable

Bridge: 
Bridge riff

Chorus:
    E                 C#9         G#m7
But I'm unbreakable, I'm unbreakable
             E 
I've decided to stop this pain
    C#9        G#m7  E2           Esus4 E
I'm unbreakable,   inside my head, 
    C#m       G#m7               E
I'm unbreakable, I've decided to break my chains
    C#9        G#m7
I'm unbreakable
Riff2    E
Inside my veins



Note I: 
Riff 1
e|------------------------|
B|------------------------|
G|------------------------|
D|--4---------------------|
A|--------2---------------|
E|------------------------|

Riff 2
e|------------------------|
B|------------------------|
G|------------------------|
D|------------------------|
A|------------------------|
E|--2-----4-----2---------|

Full intro:
    E                       Riff1  C#9              G#m7 
e|------------------------------------------------------------------|
B|--------------------0--------------------4------------------------|
G|-----------1-----------1--------------------4--------------4------|
D|-----2--------2-----------4--------6-----------6-----4--------4---|
A|--------2--------2-----------2--4-----4-----------------6---------|
E|--0-----------------------------------------------4-------------6-|

Bridge riff:
e|--------7-----------7-----------7-----------7--------------|
B|-----5-----5-----5-----5-----5-----5-----5-----5-----------|
G|-----------------------------------------------------------|
D|-----------------------------------------------------------|
A|--0-----------------------4-----------6--------------------|
E|--------------7--------------------------------------------|

e|--------7-----------7-----------2------------2-------------|
B|-----5-----5-----5-----5-----4-----4------4-----4----------|
G|-----------------------------------------------------------|
D|-----------------------------------------------------------|
A|--0--------------------------------------------------------|
E|--------------7-----------2------------2-------------------|

e|----------7---------------7---------------7---------------7-------|
B|------5-----5---5-----5-----5---5-----5-----5---5-----5-----5---5-|
G|----6---6-----6-----6---6-----6-----6---6-----6-----6---6-----6---|
D|------------------------------------------------------------------|
A|--0-------------------------------4---------------6---------------|
E|------------------7-----------------------------------------------|

e|--------------------------------------------x--x--x---12-12...--|
B|------12--9---------12---9-----------12----12-12-12---12-12...--|
G|----9---9----9----9----9-----9-----9----9---9--9--9----x--x...--|
D|--------------------------------------------x--x--x----x--x...--|
A|--7--------7----9----------9----11---------11-11-11---12-12...--|
E|--------------------------------------------x--x--x-------------|
Tap to rate this tab
# A B C D E F G H I J K L M N O P Q R S T U V W X Y Z