Guitaretab - guitar tabs
Song name
# A B C D E F G H I J K L M N O P Q R S T U V W X Y Z

Skirts - Snap Shot tab

Good song from the Amped (Xbox) sound track.


These cords are used throughout the song
E|----55--00--00----------------------------------------|
A|-55-77--22--22----------------------------------------|
D|-77-77--22--22----------------------------------------|
G|-77---------------------------------------------------|
B|------------------------------------------------------|
E|------------------------------------------------------|


Fun ass solo used a couple times
[ Tab from: http://www.guitaretab.com/s/skirts/50759.html ]
E|-------------------------------------------------------------|
A|-------------------------------------------------------------|
D|------------12-12-------------11-11-------------9---9---9----|
G|-------11-9-------------11-9---------------11-9---9---9---11-|
B|9-10-9-----------9-10-9-------------9-10-9-------------------|
E|-------------------------------------------------------------|

Pre-Chorus

E|---7777----5555---------|
A|-7-9999--5-7777---------|
D|-9-9999--7-7777---------|
G|-9-------7--------------|
B|------------------------|
E|------------------------|


Chorus

Listen to for strumming

E|---5-0-2-|
A|-5-7-2-4-|
D|-7-7-2-4-|
G|-7-------|
B|---------|
E|---------|