Song name
# A B C D E F G H I J K L M N O P Q R S T U V W X Y Z

Skrein - Reach Divinus Mix tab

Part 1

Let ring untill part 2

---------------------------------------|
14----14----14----14----14----14----14-|
---11----11----11----11----11----11----|
---------------------------------------|
---------------------------------------|
---------------------------------------|


--------------------------------------|
----14----14----14----14----14----14--|
-11----11----11----11----11----11-----|
--------------------------------------|
--------------------------------------|
--------------------------------------|


----------------------------------------|
----14----14----14----14----14/21----21-|
-11----11----11----11----11-------18----|
----------------------------------------|
----------------------------------------|
----------------------------------------|

----------------------------------------|
----21----21----22-----22-----21-----21-|
-18----18----18-----18-----18----18-----|
----------------------------------------|
----------------------------------------|
----------------------------------------|

Part 2 play x3-4 times

-------------------------------------------------------|
---14----------12-14----14-14----------12-14----14-14--|
------11-14-11-------11-------11-14-11-------11--------|
-------------------------------------------------------|
-------------------------------------------------------|
-------------------------------------------------------|


----------------------------------|
-14----------12-14----------------|
----11-14-11-------11--14\2~------|
----------------------------------|
----------------------------------|
----------------------------------|
Tap to rate this tab
# A B C D E F G H I J K L M N O P Q R S T U V W X Y Z